Four Year Strong – Just Drive tab ver. 3

This was composed through watching the cover video on youtube. Some parts may be 
wrong, please contact me with improvements if any.


Tempo = 90
Steel Guitar

Legend
L - tied note
x - dead note
h - hammer on/pull off
b - bend
s - slide
~ - vibrato
g - ghost note
> - accentuated note
t - trill
. - palm mute
. - staccato
P - popping (bass)
S - slapping (bass)
+ - tapping
W - wide vibrato
< - fade in
w - whammy bar
= - tremolo picking
v - brush up
^ - brush down
V - pick stroke up
n - pick stroke down

INTRO

D |-----------------------------------------------|A |-----------------------------------------------|F |-----------------------------------------------|C |-----------------------------------------------|G |------11-9--11--------11-9--11---11-9--12------|D |--0---------------0----------------------------|
------------------------------------------------|------------------------------------------------|------------------------------------------------|----------------------------------------9-------|------11-9--11--------11-9--11----11-9----------|--9---------------9-----------------------------| X2
VERSE
-----------------------------------------------|-----------------------------------------------|-----------------------------------------------|--2-------2-2-------2-2------------------------|--2-------2-2-------2-2----------------2-------|--0-------0-0-------0-0-------0--2--4----------| . . . . .
-----------------------------------------------|-----------------------------------------------|--6-------6-6-------6-6------------------------|--6-------6-6-------6-6-------x--9--x--9-------|--4-------4-4-------4-4-------x--7--x--7-------|------------------------------x--5--x--5-------| X2 . . . . .
PRE-CHORUS
----------------------------------------|----------------------------------------|----------------------------------------|----------4------6----------7------6----|----------------------------------------|--0-0-0-0----0-0----0-0-0-0----0-0------| . . . . . . . . . . . .
----------------------------------------|----------------------------------------|----------------------------------------|----------4------2----------2-----------|-----------------------------------4----|--0-0-0-0----0-0----0-0-0-0----0-0------| X2 . . . . . . . . . . . .
-------------------------------------------------|-------------------------------------------------|-------------------------------------------------|--6---6---6---6---6---6---9---9---9---9---9--9---|--6---6---6---4---4---4---7---7---7---7---7--7---|--4---4---4---2---2---2---5---5---5---5---5--5---| X2
CHORUS
-------------------------------------------|-------------------------------------------|-------------------------------------------|--2---2--2----2--2--2--2--2--2--2--2--2----|--2---2--2----2--2--2--2--2--2--2--2--2----|--0---0--0----0--0--0--0--0--0--0--0--0----|
-------------------------------------------|-------------------------------------------|--8---8--8----8--8--8--8--8----------------|--6---6--6----6--6--6--6--6--x--9----------|--4---4--4----4--4--4--4--4--x--7----------|-----------------------------x--5----------|
-------------------------------------------|-------------------------------------------|-------------------------------------------|--2---2--2----2--2--2--2--2--2--2--2--2----|--2---2--2----2--2--2--2--2--2--2--2--2----|--0---0--0----0--0--0--0--0--0--0--0--0----|
-----------------------------------------|-----------------------------------------|--8---8--8----8--------------------------|--6---6--6----6--------------------------|--4---4--4----4--------------------------|-----------------5--4--5--4--5--4--5s0---| X2
PRE-VERSE
------------------------------------------------|------------------------------------------------|------------------------------------------------|------------------------------------------------|------11-9--11--------11-9--11---11-9--12-------|--0---------------0-----------------------------|
------------------------------------------------|------------------------------------------------|------------------------------------------------|----------------------------------------9-------|------11-9--11--------11-9--11----11-9----------|--9---------------9-----------------------------| X2
VERSE
-----------------------------------------------|-----------------------------------------------|-----------------------------------------------|--2-------2-2-------2-2------------------------|--2-------2-2-------2-2----------------2-------|--0-------0-0-------0-0-------0--2--4----------| . . . . .
-----------------------------------------------|-----------------------------------------------|--6-------6-6-------6-6------------------------|--6-------6-6-------6-6-------x--9--x--9-------|--4-------4-4-------4-4-------x--7--x--7-------|------------------------------x--5--x--5-------| X2 . . . . .
PRE-CHORUS
----------------------------------------|----------------------------------------|----------------------------------------|----------4------6----------7------6----|----------------------------------------|--0-0-0-0----0-0----0-0-0-0----0-0------| . . . . . . . . . . . .
----------------------------------------|----------------------------------------|----------------------------------------|----------4------2----------2-----------|-----------------------------------4----|--0-0-0-0----0-0----0-0-0-0----0-0------| X2 . . . . . . . . . . . .
-------------------------------------------------|-------------------------------------------------|-------------------------------------------------|--6---6---6---6---6---6---9---9---9---9---9--9---|--6---6---6---4---4---4---7---7---7---7---7--7---|--4---4---4---2---2---2---5---5---5---5---5--5---|
---------------------------------------------------------------|---------------------------------------------------------------|---------------------------------------------------------------|--6---6---6---6---6---6---9---9---x-x-x-x-x-x-x-x-x-x-x-x-19s0-|--6---6---6---4---4---4---7---7---x-x-x-x-x-x-x-x-x-x-x-x-19s0-|--4---4---4---2---2---2---5---5---x-x-x-x-x-x-x-x-x-x-x-x-19s0-|
CHORUS
-------------------------------------------|-------------------------------------------|-------------------------------------------|--2---2--2----2--2--2--2--2--2--2--2--2----|--2---2--2----2--2--2--2--2--2--2--2--2----|--0---0--0----0--0--0--0--0--0--0--0--0----|
-------------------------------------------|-------------------------------------------|--8---8--8----8--8--8--8--8----------------|--6---6--6----6--6--6--6--6--x--9----------|--4---4--4----4--4--4--4--4--x--7----------|-----------------------------x--5----------|
-------------------------------------------|-------------------------------------------|-------------------------------------------|--2---2--2----2--2--2--2--2--2--2--2--2----|--2---2--2----2--2--2--2--2--2--2--2--2----|--0---0--0----0--0--0--0--0--0--0--0--0----|
-----------------------------------------|-----------------------------------------|--8---8--8----8--------------------------|--6---6--6----6--------------------------|--4---4--4----4--------------------------|-----------------5--4--5--4--5--4--5s0---| X2
Bridge
--------------------------------------------|--------------------------------------------|--------------------------------------------|--2---2---2-------2--2--2--2--2--2--2--2----|--2---2---2-------2--2--2--2--2--2--2--2----|--0---0---0-------0--0--0--0--0--0--0--0----|
------------------------------------------------------------------|------------------------------------------------------------------|------------------------------------------------------------------|------------------------------------------------------------------|----------7-7-7-7---------7-7-7-7-6-6-6-6-4-4-4-4-----------------|--4-4-4-4---------4-4-4-4-------------------------7-7-7-7-5-5-5-5-|
------------------------------------------------------------------|------------------------------------------------------------------|------------------------------------------------------------------|------------------------------------------------------------------|----------7-7-7-7---------7-7-7-7-6-6-6-6-4-4-4-4-----------------|--4-4-4-4---------4-4-4-4-------------------------7-7-7-7-4-4-4-4-|
------------------------------------------------------------------|------------------------------------------------------------------|------------------------------------------------------------------|------------------------------------------------------------------|----------7-7-7-7---------7-7-7-7---------7-7-7-7---------7-7-7-7-|--5-5-5-5---------5-5-5-5---------7-7-7-7---------7-7-7-7---------|
--------------------------------------------------------------------------|--------------------------------------------------------------------------|--------------------------------------------------------------------------|--------------------------------------------------------------------------|----------7-7-7-7-6-6-6-6-7-7-7-7-9-9-9-9-9-9-9-9-9b-9b-9b-9b-9b-9b-9b-9b-|--4-4-4-4-----------------------------------------------------------------|
Break (Clean/Light Distortion)
----------------------------------------------|----------------------------------------------|----------------------------------------------|-----------------------------------------13---|--11---9--11---11-11-9--11---11s12-------11---|--0----0--0----0--0--0--0----0--0--------9----| X2
CHORUS
-------------------------------------------|-------------------------------------------|-------------------------------------------|--2---2--2----2--2--2--2--2--2--2--2--2----|--2---2--2----2--2--2--2--2--2--2--2--2----|--0---0--0----0--0--0--0--0--0--0--0--0----|
-------------------------------------------|-------------------------------------------|--8---8--8----8--8--8--8--8----------------|--6---6--6----6--6--6--6--6--x--9----------|--4---4--4----4--4--4--4--4--x--7----------|-----------------------------x--5----------|
-------------------------------------------|-------------------------------------------|-------------------------------------------|--2---2--2----2--2--2--2--2--2--2--2--2----|--2---2--2----2--2--2--2--2--2--2--2--2----|--0---0--0----0--0--0--0--0--0--0--0--0----|
-----------------------------------------|-----------------------------------------|--8---8--8----8--------------------------|--6---6--6----6--------------------------|--4---4--4----4--------------------------|-----------------5--4--5--4--5--4--5s0---| X2
OUTRO
-----------------------------------------------|-----------------------------------------------|-----------------------------------------------|-----------------------------------------------|-----11-9--11--------11-9--11---11-9--12-------|--0---------------0----------------------------|
------------------------------------------------||------------------------------------------------||------------------------------------------------||----------------------------------------9-------||------11-9--11--------11-9--11----11-9----------||--9---------------9-----------------------------||
Please rate this tab:
x1.0