Foxboro Hot Tubs - Shes A Saint Not A Celebrity tab

Artist: Foxboro Hot Tubs
Song: She's A Saint Not A Celebrity
Foxborohottubs.com

intro

|--------------------------------------------------------||--------------------------------------------------------||-4--9-9-9--9-9--11--4-4-4--4-4--4--9-9-9--9-9--11-------||-4--9-9-9--9-9--11--4-4-4--4-4--4--9-9-9--9-9--11--9-9-9||-2--7-7-7--7-7---9--2-2-2--2-2--2--7-7-7--7-7---9--9-9-9||---------------------------------------------------7-7-7|
verse
|---------------------------------||---------------------------------||-------------------------------9-||-8--9-9-9--8--9-9-9--8--9-9-9--9-||-8--9-9-9--8--9-9-9--8--9-9-9--7-||-6--7-7-7--6--7-7-7--6--7-7-7----| (x2) * * * * * * * * * * * *|
|---------------------------------------------------------|---------------------------------------------------------|-4--9-9-9--9-9--11--4-4-4--4-4--4--9-9-9--9-9--11--------|-4--9-9-9--9-9--11--4-4-4--4-4--4--9-9-9--9-9--11--9-9-9-|-2--7-7-7--7-7---9--2-2-2--2-2--2--7-7-7--7-7---9--9-9-9-|---------------------------------------------------7-7-7-
-----------------------------------------------------------|-----------------------------------------------------------|-4-4-4--9-9-9--9-9--11-------------------------------------|-4-4-4--9-9-9--9-9--11--9-9-9--9-9--9--2-2-2--2-2--4--9-9-9|-2-2-2--7-7-7--7-7---9--9-9-9--9-9--9--2-2-2--2-2--4--9-9-9|------------------------7-7-7--7-7--7--0-0-0--0-0--2--7-7-7|
chorus:
|------------------------------------|------------------------------------|------------------------------------|-7-7-7--7-7-7-7-7--9-9--9-9-9-9-9-9-|-7-7-7--7-7-7-7-7--9-9--9-9-9-9-9-9-|-5-5-5--5-5-5-5-5--7-7--7-7-7-7-7-7-(x3)
Guitar 2: (after playing the first part of the chorus twice)
|-5-5--5-5--^5--5-5-5-||-5-5--5-5------5-5-5-||---------------------||---------------------||---------------------||---------------------|
Guitar 1:
----------------------------------------|----------------------------------------|----------------------------------------|-7-7-7--7-7-7-7-7--4--4-4-4-4-4---------|-7-7-7--7-7-7-7-7--4--4-4-4-4-4---------|-5-5-5--5-5-5-5-5--2--2-2-2-2-2---------|
verse
|---------------------------------||---------------------------------||-------------------------------9-||-8--9-9-9--8--9-9-9--8--9-9-9--9-||-8--9-9-9--8--9-9-9--8--9-9-9--7-||-6--7-7-7--6--7-7-7--6--7-7-7----| (x2) * * * * * * * * * * * *|
|-----------------------------------------------------------||-----------------------------------------------------------||-4-4-4--9-9-9--9-9--11-------------------------------------||-4-4-4--9-9-9--9-9--11--9-9-9--9-9--9--2-2-2--2-2--4--9-9-9||-2-2-2--7-7-7--7-7---9--9-9-9--9-9--9--2-2-2--2-2--4--9-9-9||------------------------7-7-7--7-7--7--0-0-0--0-0--2--7-7-7| (x2)
chorus:
|------------------------------------|------------------------------------|------------------------------------|-7-7-7--7-7-7-7-7--9-9--9-9-9-9-9-9-|-7-7-7--7-7-7-7-7--9-9--9-9-9-9-9-9-|-5-5-5--5-5-5-5-5--7-7--7-7-7-7-7-7-(x3)
Guitar 2: (after playing the chorus once)
|-5-5--5-5--^5--5-5-5-||-5-5--5-5------5-5-5-||---------------------||---------------------||---------------------||---------------------|
Guitar 1:
----------------------------------------|----------------------------------------|----------------------------------------|-7-7-7--7-7-7-7-7--4--4-4-4-4-4---------|-7-7-7--7-7-7-7-7--4--4-4-4-4-4---------|-5-5-5--5-5-5-5-5--2--2-2-2-2-2---------|
verse:
|---------------------------------||---------------------------------||-------------------------------9-||-8--9-9-9--8--9-9-9--8--9-9-9--9-||-8--9-9-9--8--9-9-9--8--9-9-9--7-||-6--7-7-7--6--7-7-7--6--7-7-7----| (x2) * * * * * * * * * * * *
Guitar 2: (not 100% sure)
|-7-5--7-7--7-7--7-7--7-7--7-7----||-5-5--5-5--5-5--5-5--5-5--5-5----||---------------------------------||---------------------------------||---------------------------------||---------------------------------|
solo: guitar 1: (no idea, if you know it please post it up) Guitar2:
-----------------------------|-----------------------------|-----------------------------|-9-9-9--2-2-2--2-2--4--9-9-9-|-9-9-9--2-2-2--2-2--4--9-9-9-|-7-7-7--0-0-0--0-0--2--7-7-7-| (x4)
verse:
|-----------------------------------------------------------||-----------------------------------------------------------||-4-4-4--9-9-9--9-9--11-------------------------------------||-4-4-4--9-9-9--9-9--11--9-9-9--9-9--9--2-2-2--2-2--4--9-9-9||-2-2-2--7-7-7--7-7---9--9-9-9--9-9--9--2-2-2--2-2--4--9-9-9||------------------------7-7-7--7-7--7--0-0-0--0-0--2--7-7-7| (x2)
chorus:
|------------------------------------|------------------------------------|------------------------------------|-7-7-7--7-7-7-7-7--9-9--9-9-9-9-9-9-|-7-7-7--7-7-7-7-7--9-9--9-9-9-9-9-9-|-5-5-5--5-5-5-5-5--7-7--7-7-7-7-7-7-(x3)
Guitar 2: (after playing the chorus once)
|-5-5--5-5--^5--5-5-5-||-5-5--5-5------5-5-5-||---------------------||---------------------||---------------------||---------------------|
Guitar 1:
----------------------------------------|----------------------------------------|----------------------------------------|-7-7-7--7-7-7-7-7--4--4-4-4-4-4---------|-7-7-7--7-7-7-7-7--4--4-4-4-4-4---------|-5-5-5--5-5-5-5-5--2--2-2-2-2-2---------|
outro:
|---------------------------------||---------------------------------||-------------------------------9-||-8--9-9-9--8--9-9-9--8--9-9-9--9-||-8--9-9-9--8--9-9-9--8--9-9-9--7-||-6--7-7-7--6--7-7-7--6--7-7-7----| (x4) * * * * * * * * * * * *
Love this song <3 ..enjoy! punkpsycho sawsan11@gmail.com
Tap to rate this tab
 
# A B C D E F G H I J K L M N O P Q R S T U V W X Y Z