Francis Cabrel - Je T Aimais Je T Aime Je T Aimerai tab

je t'aimais, je t'aime, je t'aimerai ecrit par francis cabrel

intro |--------------------3--------------------------||-0--0-0--0----------0-0---0-------------3-3----||-0--0-0--0--2-2---2---2p0-0------0------0-0----||-0--0-0--0--0-0---0-------0------0-0-0--0-0----||-2-------2----------------2------2-------------||-3-------3----------------3----3------3------3-|
|---------------------3-----------------------------------------||-0--0-0--0-----------0-0---0-----------------------------------||-0--0-0--0--2-2-2--2---2p0-0----0------0-0---0---0---0-0---0-0-||-0--0-0--0--0-0-0--0-------0----0-0-0--0-0---0---0---0-0---0-0-||-2-------2-----------------2----2------------------------------||-3-------3-----------------3--3------3-----3---3---3-----3-----|
couplet
|---------------------3------------------------||-0--0-0--0-----------0-0----------------0-0---||-0--0-0--0--2-2-2--2---2p0-0-------0-0--0-0---||-0--0-0--0--0-0-0--0-------0-----0-0-0--0-0---||-2-------2-----------------2-----2------------||-3-------3-----------------3--3--3----3-------|
|-2-2-2--2-2-2---2-----------2-2-2---2-2-2------||-3-3-3--3-3-3-3-3-----3--3--3-3-3-3-3-3-3-3----||-2-2-2--2-2-2-2---0---2--2--2-2-2-2-2-2-2-2----||-0-0-0--0-0-0-0---0---0--0--------0-------0----||--------------0--------------------------------||-----------------------------------------------|
|--------0-0-0----0-0-0-0----------------------0-0-0-0-------||--------1-1-1----3-3-3-3--1-1-1-1---1-1-1-----3-3-3-3-1-1-0-||-0-0-0--0-0-0-0--0-0-0-0--0-0-0-0---0-0-0-----0-0-0-0-0-0-0-||-2-2-2--------2--2-2-2-2--2-2-2-2-2-2-2-2--2--2-2-2-2-2-2-2-||-3-3-3--------3-----------3-3-3-3-3--------3----------------||------------------------------------------------------------|
|----0-0-0-----0-0-0--------------------------------||-0--0-0-0--0--0-0-0-------------0-0-0-0-0--0-0-0---||-0--0-0-0--0--0-0-0-0-0-0-0-----0-0-0-0-0--0-0-0---||-2--2-2-2--2--2-2-2-0-0-0-2-----2-2-2-0-0--0-0-0---||-2---------2--------2-2-2-2-2-----2-2-2-2--2-2-0---||----------------------------0-0--------------------|
|---------------------3------------------------||-0--0-0--0-----------0-0----------------0-0---||-0--0-0--0--2-2-2--2---2p0-0-------0-0--0-0---||-0--0-0--0--0-0-0--0-------0-----0-0-0--0-0---||-2-------2-----------------2-----2------------||-3-------3-----------------3--3--3----3-------|
|-2-2-2--2-2-2---2-----------2-2-2---2-2-2------||-3-3-3--3-3-3-3-3-----3--3--3-3-3-3-3-3-3-3----||-2-2-2--2-2-2-2---0---2--2--2-2-2-2-2-2-2-2----||-0-0-0--0-0-0-0---0---0--0--------0-------0----||--------------0--------------------------------||-----------------------------------------------|
|--------0-0-0----0-0-0-0----------------------0-0-0-0-------||--------1-1-1----3-3-3-3--1-1-1-1---1-1-1-----3-3-3-3-1-1-0-||-0-0-0--0-0-0-0--0-0-0-0--0-0-0-0---0-0-0-----0-0-0-0-0-0-0-||-2-2-2--------2--2-2-2-2--2-2-2-2-2-2-2-2--2--2-2-2-2-2-2-2-||-3-3-3--------3-----------3-3-3-3-3--------3----------------||------------------------------------------------------------|
|----0-0-0-----0-0-0--------------------------------||-0--0-0-0--0--0-0-0-------------0-0-0-0-0--0-0-0---||-0--0-0-0--0--0-0-0-0-0-0-0-----0-0-0-0-0--0-0-0---||-2--2-2-2--2--2-2-2-0-0-0-2-----2-2-2-0-0--0-0-0---||-2---------2--------2-2-2-2-2-----2-2-2-2--2-2-0---||----------------------------0-0--------------------|
|------0-0-----0-0------------0-0-----0-0------||-1-1--1-1-1-1-1-1-1-0----1-1-1-1-1-1-1-1-1-0--||-0-0--0-0-0-0-0-0-0-0----2-2-2-2-2-2-2-2-2-0--||-2-2------2-2-----2-0----2-2-----2-2-----2-0--||-3--------3-------3------0-------0-------0----||----------------------------------------------|
|-2-2-2--2-2-2---2-----------2-2-2---2-2-2------||-3-3-3--3-3-3-3-3-----3--3--3-3-3-3-3-3-3-3----||-2-2-2--2-2-2-2---0---2--2--2-2-2-2-2-2-2-2----||-0-0-0--0-0-0-0---0---0--0--------0-------0----||--------------0--------------------------------||-----------------------------------------------|
|------0-0-----0-0------------0-0-----0-0------||-1-1--1-1-1-1-1-1-1-0----1-1-1-1-1-1-1-1-1-0--||-0-0--0-0-0-0-0-0-0-0----2-2-2-2-2-2-2-2-2-0--||-2-2------2-2-----2-0----2-2-----2-2-----2-0--||-3--------3-------3------0-------0-------0----||----------------------------------------------|
|-2-2-2--2-2-2---2-----------2-2-2---2-2-2------||-3-3-3--3-3-3-3-3-----3--3--3-3-3-3-3-3-3-3----||-2-2-2--2-2-2-2---0---2--2--2-2-2-2-2-2-2-2----||-0-0-0--0-0-0-0---0---0--0--------0-------0----||--------------0--------------------------------||-----------------------------------------------|
|------0-0-----0-0--------||-1-1--1-1-1-1-1-1-1-0----||-0-0--0-0-0-0-0-0-0-0----||-2-2------2-2-----2-0----||-3--------3-------3------||-------------------------|
|----0-0-0-----0-0-0--------------------------------||-0--0-0-0--0--0-0-0-------------0-0-0-0-0--0-0-0---||-0--0-0-0--0--0-0-0-0-0-0-0-----0-0-0-0-0--0-0-0---||-2--2-2-2--2--2-2-2-0-0-0-2-----2-2-2-0-0--0-0-0---||-2---------2--------2-2-2-2-2-----2-2-2-2--2-2-0---||----------------------------0-0--------------------|
|---------------------3------------------------||-0--0-0--0-----------0-0----------------0-0---||-0--0-0--0--2-2-2--2---2p0-0-------0-0--0-0---||-0--0-0--0--0-0-0--0-------0-----0-0-0--0-0---||-2-------2-----------------2-----2------------||-3-------3-----------------3--3--3----3-------|
|-2-2-2--2-2-2---2-----------2-2-2---2-2-2------||-3-3-3--3-3-3-3-3-----3--3--3-3-3-3-3-3-3-3----||-2-2-2--2-2-2-2---0---2--2--2-2-2-2-2-2-2-2----||-0-0-0--0-0-0-0---0---0--0--------0-------0----||--------------0--------------------------------||-----------------------------------------------|
|--------0-0-0----0-0-0-0----------------------0-0-0-0-------||--------1-1-1----3-3-3-3--1-1-1-1---1-1-1-----3-3-3-3-1-1-0-||-0-0-0--0-0-0-0--0-0-0-0--0-0-0-0---0-0-0-----0-0-0-0-0-0-0-||-2-2-2--------2--2-2-2-2--2-2-2-2-2-2-2-2--2--2-2-2-2-2-2-2-||-3-3-3--------3-----------3-3-3-3-3--------3----------------||------------------------------------------------------------|
|----0-0-0-----0-0-0--------------------------------||-0--0-0-0--0--0-0-0-------------0-0-0-0-0--0-0-0---||-0--0-0-0--0--0-0-0-0-0-0-0-----0-0-0-0-0--0-0-0---||-2--2-2-2--2--2-2-2-0-0-0-2-----2-2-2-0-0--0-0-0---||-2---------2--------2-2-2-2-2-----2-2-2-2--2-2-0---||----------------------------0-0--------------------|
|---------------------3------------------------||-0--0-0--0-----------0-0----------------0-0---||-0--0-0--0--2-2-2--2---2p0-0-------0-0--0-0---||-0--0-0--0--0-0-0--0-------0-----0-0-0--0-0---||-2-------2-----------------2-----2------------||-3-------3-----------------3--3--3----3-------|
|-2-2-2--2-2-2---2-----------2-2-2---2-2-2------||-3-3-3--3-3-3-3-3-----3--3--3-3-3-3-3-3-3-3----||-2-2-2--2-2-2-2---0---2--2--2-2-2-2-2-2-2-2----||-0-0-0--0-0-0-0---0---0--0--------0-------0----||--------------0--------------------------------||-----------------------------------------------|
|--------0-0-0----0-0-0-0----------------------0-0-0-0-------||--------1-1-1----3-3-3-3--1-1-1-1---1-1-1-----3-3-3-3-1-1-0-||-0-0-0--0-0-0-0--0-0-0-0--0-0-0-0---0-0-0-----0-0-0-0-0-0-0-||-2-2-2--------2--2-2-2-2--2-2-2-2-2-2-2-2--2--2-2-2-2-2-2-2-||-3-3-3--------3-----------3-3-3-3-3--------3----------------||------------------------------------------------------------|
|----0-0-0-----0-0-0--------------------------------||-0--0-0-0--0--0-0-0-------------0-0-0-0-0--0-0-0---||-0--0-0-0--0--0-0-0-0-0-0-0-----0-0-0-0-0--0-0-0---||-2--2-2-2--2--2-2-2-0-0-0-2-----2-2-2-0-0--0-0-0---||-2---------2--------2-2-2-2-2-----2-2-2-2--2-2-0---||----------------------------0-0--------------------|
|------0-0-----0-0------------0-0-----0-0------||-1-1--1-1-1-1-1-1-1-0----1-1-1-1-1-1-1-1-1-0--||-0-0--0-0-0-0-0-0-0-0----2-2-2-2-2-2-2-2-2-0--||-2-2------2-2-----2-0----2-2-----2-2-----2-0--||-3--------3-------3------0-------0-------0----||----------------------------------------------|
|-2-2-2--2-2-2---2-----------2-2-2---2-2-2------||-3-3-3--3-3-3-3-3-----3--3--3-3-3-3-3-3-3-3----||-2-2-2--2-2-2-2---0---2--2--2-2-2-2-2-2-2-2----||-0-0-0--0-0-0-0---0---0--0--------0-------0----||--------------0--------------------------------||-----------------------------------------------|
|------0-0-----0-0------------0-0-----0-0------||-1-1--1-1-1-1-1-1-1-0----1-1-1-1-1-1-1-1-1-0--||-0-0--0-0-0-0-0-0-0-0----2-2-2-2-2-2-2-2-2-0--||-2-2------2-2-----2-0----2-2-----2-2-----2-0--||-3--------3-------3------0-------0-------0----||----------------------------------------------|
|-2-2-2--2-2-2---2-----------2-2-2---2-2-2------||-3-3-3--3-3-3-3-3-----3--3--3-3-3-3-3-3-3-3----||-2-2-2--2-2-2-2---0---2--2--2-2-2-2-2-2-2-2----||-0-0-0--0-0-0-0---0---0--0--------0-------0----||--------------0--------------------------------||-----------------------------------------------|
|------0-0-----0-0--------||-1-1--1-1-1-1-1-1-1-0----||-0-0--0-0-0-0-0-0-0-0----||-2-2------2-2-----2-0----||-3--------3-------3------||-------------------------|
|----0-0-0-----0-0-0--------------------------------||-0--0-0-0--0--0-0-0-------------0-0-0-0-0--0-0-0---||-0--0-0-0--0--0-0-0-0-0-0-0-----0-0-0-0-0--0-0-0---||-2--2-2-2--2--2-2-2-0-0-0-2-----2-2-2-0-0--0-0-0---||-2---------2--------2-2-2-2-2-----2-2-2-2--2-2-0---||----------------------------0-0--------------------|
steve, pompom020366@hotmail.com pompom@sympatico.ca
Tap to rate this tab
 
# A B C D E F G H I J K L M N O P Q R S T U V W X Y Z