Francis Lai - Un Homme Et Une Femme tab version 2

Un Homme Et Une Femme 
music by Francis Lai 
original is Dong Hwan's youtube video
i wrote down it by ear  

|----------|--2------------------0------||-0--2--3--|--3--3----3--2----2--2----3-||----------|----------4--0--------------||----------|-------------2--------------||-2--4--5--|----------------0-------0---||----------|--0-----0-------------------|
|--0--0----0--------------------|------------------------------||--2--2----2--0----0--3----2----|--3--3----0-------------------||--2----------2----2--2----2----|--4--4------------------0-/6--||-------------0-----------------|--5----------2---2---4--------||----------------2-------2------|---------------0--------------||--2-----2-------------------0--|--------0---------------------|
|------------------------------|-----------------------------||-0--0----0--0----0--0---------|---------------------4----2--||-2--2----2--2----2--2---------|--4--4----4--4----4--4----4--||-0----------------------------|--4--4----4--3----3----------||------------------------------|--6-------------4-------4----||-2-----2-------2-------2---4--|--------4--------------------|
|---------------------------------|----------------------------||---2-----------------------------|---------------------2---0--||---3--3----3--3---3--6---5--4--3-|--2--2----2--2----2--2---2--||---3--3----3--1---1--6---5--4--3-|--2--2----2--1----1---------||---------------------------------|----------------2------2----||-2-------2------2----6---5--4--3-|--2-----2-------------------|
|--------------------|--------------||--0-----------------|--0---2---3---||--1--1----1----1----|--------------||--1--1----1----1----|--------------||--------------------|--2---4---5---||--0-----0----0------|--------------|
|--------------------------------------|---------------------------------------||--4-4-4-4-4---4-4-4-4-4---------4--5--|-4-4-4-4-4---4-4-4-4-4----------4---5--||--4-4-4-4-4---4-4-4-4-4------6--4-----|-6-6-6-6-6---6-6-6-6-6-------6--6------||--6-------6-------6--------6----6-----|-5-----------5-------------5----5------||--------------------------------------|---------6---------------6------6------||--0-------7-------0------0------7-----|-6---------------6---------------------|
|--------------------------------------|-------------------------------||--2-2-2-2-2---2-2-2-2-2------0--2--3--|--2--2----2---------------2----||--2-2-2-2-2---2-2-2-2-2---------2-----|--4--4----4--4----4--4---------||--4-------4-------4--------4----0-----|--4--4----4--4----3--3---------||--5-------0-------5------0------------|----------------4-------4------||--------------------------------2-----|--4-----4-------------------2--|
|------------------|----------------|||--2---------------|--0----2----3---|||--3--3----3----3--|----------------|||--3--3----3----1--|----------------|||------------------|--2----4----5---|||--------2----2----|----------------||
|---------------------------||--2-----------------4--/7--||--4--4----4--4--4----------||--4--4----4--3--3----------||-------------4-------------||--4-----4------------------|
|---------------------------------|----------------------------------||--6-6-6-6-6---6-6-6-6-6---6---5--|--4-4-4-4-4---4-4-4-4-4---4---5---||--6-6-6-6-6---6-6-6-6-6---6---5--|--4-4-4-4-4---4-4-4-4-4---4---5---||--8-------8-------8-------8---7--|--6-------6-------6-------6---7---||--9---------------9-------9---8--|--7---------------7-------7---8---||----------9----------------------|----------7-----------------------|
|------|||--6---|||--6---|||--8---|||--9---|||------||
Tap to rate this tab
 
# A B C D E F G H I J K L M N O P Q R S T U V W X Y Z