Franco Morone - Night Drivers tab

                                Night Drivers                                   
                                                      Franco Morone
(Capo 3)

D||----------------------------|----------------------------||A||------0---------------------|-----0----------------------||E||*-------0----0-----0-----0--|-------0----0-----0-----0--*||D||*---------2-----3-----1-----|---------2-----------------*||A||---0------------------------|--0------------3-----2------||E||----------------------------|----------------------------||
---------------------0h-2--|--2------------------------|--------3h2h0h-2--3--------|--------0-----0--2h0----0--|-----0---------------------|---------------------3-----|---------------------------|-----0-----0---------------|--0------------------------|---------------------------|---------------4-----------|--3-----------2------------|
--3h-2h-0-----------0--3--|--2-----------------------|-----------3h-2h-3--------|--------2-----0--------0--|--------1-----------------|-----0--------------3-----|--0-----------------------|-----------2--------------|--------------------0--2--|--3--------------3--------|--------------3-----------|--------------1-----------|
--0--------------------0--|---------------------------|-----3h-3h-0-----0--2-----|--3------------------3-----|--------------4-----------|-----0--0----0-0--0-----0--|--------3-----------------|-----------0---------------|--2-----------------------|--0------------------------|--------------0-----2--4--|---------------3-----------|
--------------------------||----------------------------|-----3--3--0--2--0--------||------0---------------------|--------------------0--4--||*-------0----0-----0-----0--|--1-----------------------||*---------2-----3-----1-----|-----------------2--------||---0------------------------|--2-----------0-----------||----------------------------|
----------------------------||-------------------------|-----0----------------------||--------3h2h0--2---------|-------0----0-----0-----0--*||-----0--------------0----|---------2-----------------*||-------------------------|--0------------3-----2------||--0----------------------|----------------------------||---------------4---------|
------0h-2-----------------|--3h-2h-0-----------0--3--|--2h3-------3h-0--------0--|-----------3--2--3--------|---------------------3-----|--------1-----------------|------------------0--------|--0-----------------------|---------------------------|--------------------0--2--|--3------------2-----------|--------------3-----------|
--2------------------------|--0--------------------0--|--------3h2----0--------0--|-----3--2--0-----0--2-----|-----0------0--------3-----|--------------4-----------|---------------------------|--------3-----------------|--3---------------3--------|--2-----------------------|---------------1-----------|--------------0-----2--4--|
-------------------------|--------------------------|--3----------------------|-----3h-2h-0--2h-0--------|--------0-----0----0--3--|-----------------------4--|-----2-----0-------------|--1-----------------0-----|--0----------------------|-----------------2--------|--------------3----------|--2-----------0-----------|
|----------------------------|---------------------------||------0---------------------|-----0---------------------||*-------0----0-----0-----0--|-------0----0-----0-----0--||*---------2-----3-----1-----|---------2-----------------||---0------------------------|--0------------3-----2-----||----------------------------|---------------------------|
-----3--3--2--2--0--0----|-----0--0-----------------||-------------------------|-----------3--3-----2-----||-----5--5--3--3-----1----|-----1--1----------------*||--0----------------------|-----------2--2-----0----*||-------------------------|--------------------------||-------------------------|--3--------------3--------||
--------------------------|-------------------------|-------------------------|-----3--3--2--2-3-0--0----|--3--3--3--2--2h-0--0----|-----3--3--2--2h-0--0----|--------------------------|-------------------------|-------------------------|-----2--2--0--0-----------|--5--5--5--3--3-----2----|-----2--2--0--0----------|--0------------------3----|--0----------------------|--------------------3----|--------------------------|-------------------------|--1----------------------|
------------------------|--------------------------|-------------------------|--2--2--2h-0--0---------|-----0--0-----------------|-------------------------|-------------------4----|-----------3--3h-1--1h-0--|--4--4--4h-1--1h-0--0----|--0---------------------|-----2--------------------|--0----------------------|--------------3----2----|--------------------------|-------------------------|--0---------------------|--1-----------------------|--0----------------------|
---------------------------|---------------------||-----0---------------------|-----------12--------||-------0----0-----0-----0--|---------------------||---------2-----3-----1-----|--7------------------||--0------------------------|---------------------||---------------------0-----|---------------------||
Tap to rate this tab
 
# A B C D E F G H I J K L M N O P Q R S T U V W X Y Z