Frank Zappa - Cletus Awreetus Awrightus tab

Frank Zappa
Cletus Awreetus Awrightus
The Grand Wazoo

there was a tab of this tune floating around on the net but it wasnt complete,
so ive completed it.


Theme 1---------------------------------|---------------------------------|---------------------------------|-----------2--3--3-3-2-0--2------|-4---4-4-5----5--------------4---|-5---------------------------5---|
-----------------------------------------------|-----------------------------------------------|-----------------------------------------------|--------------3---5--3-------------------------|----------3-5----------5-3---3----1-3-1-----1--|-3-3--3-6------------------6------------3-1----|
----------------------------------------|----------------------------------------|----------------------------------------|--------------------2--------------2----|-1-1-3-5-3----3-3-5---5----5-5-3--------|---------------------------------5------|
------------------------------------------------------------|------------------------------------------------------------|-------------------------------------------------------9h10-|-12-12-11-11-9-9--------------------12-12----12-11-9--------|-----------------12-12--11-12-11-7-------------------12-----|------------------------------------------------------------|
-9--------------9-------------9---------------|---12-10----------12-10---------12-10---------|---------11~-9----------11~-9---------11~-9---|----------------------------------------------|----------------------------------------------|----------------------------------------------|
Theme 1---------------------------------------|---------------------------------------|---------------9-10---10-10-9----9-----|-11---11-11-12---12-----------12---11--|-12--------------------------------12--|---------------------------------------|
------------------------------------------------------------|------------------------------------------------------------|--------------------10---12--10-----------------------------|--------------10-12-------------12-10----10--8-10-8------8--|-10-10--10-13-------------------------13------------10-8----|------------------------------------------------------------|
-----------------------------------------------|-----------------------------------------------|--------------------------9------------------9-|-8-8-10-12-10----10-10-12---12---12-12-10------|------------------------------------------12---|-----------------------------------------------|
---------------------------------------------------------------------------|---------------------------------------------------------------------------|-------------------------------------------------------9h10-9-12-------10--|-12-12-11-11-9-9--------------------12-12----12-11-9-------------12--------|-----------------12-12--11-12-11-7-------------------12-------------12-----|---------------------------------------------------------------------------|
-----4---------4---------4---------------8------------8----------8-----------|---4---4-----4---4-----4---4-----------8---8--------8---8------8---8---etc---|--5------5--5-----5--5------5--------9-------9----9-------9--9------9--------|-6---------6--------6--------6--8--10-----------10----------10--------10-----|-----------------------------------------------------------------------------|-----------------------------------------------------------------------------|
---------------------------------------------------------------------------|---------------------------------------------------------------------------|-------------------------------------------------------9h10-9-12-------10--|-12-12-11-11-9-9--------------------12-12----12-11-9-------------12--------|-----------------12-12--11-12-11-7-------------------12-------------12-----|---------------------------------------------------------------------------|
-----4---------4---------4---------------8------------8----------8----------|---4---4-----4---4-----4---4-----------8---8--------8---8------8---8--------|--5------5--5-----5--5------5--------9-------9----9-------9--9------9---etc-|-6---------6--------6--------6--8--10-----------10----------10-------10-----|----------------------------------------------------------------------------|----------------------------------------------------------------------------|
-9-------------9------------9------------9-9-------------------------|---12-10---------12-10--------12-10----------12p11p10----12----------|---------11~9----------11~9---------11~9--------------12----10-------|---------------------------------------------------------------10-10-|---------------------------------------------------------------------|---------------------------------------------------------------------|
C# Bb G C# Bb G E7 C#m B C#m B
-7---------------5------------9--------------|---10-7------------8-5----------12-10--------|--------9~-7-----------7~-5-----------11~-9--|---------------------------------------------|---------------------------------------------|---------------------------------------------|
Theme 1 Reprise La la...---------------------------------------|---------------------------------------|---------------9-10---10-10-9----9-----|-11---11-11-12---12-----------12---11--|-12--------------------------------12--|---------------------------------------|
LA LA LALALALALA....-----------------------------------------------|-----------------------------------------------|-----------------------------------------------|--------------3---5--3-------------------------|----------3-5----------5-3---3----1-3-1-----1--|-3-3--3-6------------------6------------3-1----|
----------------------------------------|----------------------------------------|----------------------------------------|--------------------2--------------2----|-1-1-3-5-3----3-3-5---5----5-5-3--------|---------------------------------5------|
------------------------------------------------------------|------------------------------------------------------------|-------------------------------------------------------9h10-|-12-12-11-11-9-9--------------------12-12----12-11-9--------|-----------------12-12--11-12-11-7-------------------12-----|------------------------------------------------------------|
Ti Teer de ti ti ti...---------------------------------------|---------------------------------------|---------------9-10---10-10-9----9-----|-11---11-11-12---12-----------12---11--|-12--------------------------------12--|---------------------------------------|
Rum Pum Pum pum...-----------------------------------------------|-----------------------------------------------|-----------------------------------------------|--------------3---5--3-------------------------|----------3-5----------5-3---3----1-3-1-----1--|-3-3--3-6------------------6------------3-1----|
----------------------------------------|----------------------------------------|----------------------------------------|--------------------2--------------2----|-1-1-3-5-3----3-3-5---5----5-5-3--------|---------------------------------5------|
------------------------------------------------------------|------------------------------------------------------------|-------------------------------------------------------9h10-|-12-12-11-11-9-9--------------------12-12----12-11-9--------|-----------------12-12--11-12-11-7-------------------12-----|------------------------------------------------------------|
-9-------------9------------9------------9-9-------------------------|---12-10---------12-10--------12-10----------12p11p10----12----------|---------11~9----------11~9---------11~9--------------12----10-------|---------------------------------------------------------------10-10-|---------------------------------------------------------------------|---------------------------------------------------------------------|
panzerkampfwagen@gmail.com
Tap to rate this tab
 
# A B C D E F G H I J K L M N O P Q R S T U V W X Y Z