Frederic Chopin - Fantasie Impromptu Op 66 tab

Fantasie Impromptu, Op 66 in C#m - Theme from Moderata cantabile in Db
Chopin (1810-1849)



Time signature - 4/4
Tuning - E A D G B E


|----------------------------|-----------------------------||----------------------------|-----------------1-------3---||--0-------------------------|---2-----0-------------------||-----------------0----------|-----------------------------||----------2-------------2---|-----------------------------||--3-------------------------|---3-------------------------|
|--0------------------------|--3----------------------------||---------------------------|-------------------------1-----||-----------------0---------|-----------------0-------------||----------2------------2---|----------2--------------------||--3------------------------|--3----------------------------||---------------------------|-------------------------------|
|--1--------------0---------------|-------------------0--------------||---------------------------------|--3--------------------------1----||------------0---------------0----|-----------0-----------------0----||--0------------------------------|----------------------------------||-----------------3---------------|--2----------------0--------------||---------------------------------|----------------------------------|
|---------------------------------|----------------------------------||---------------------------------|----------------------------------||--0------------------------------|--2-------------------------------||--------------------0------------|-------------------3--------------||-----------2-----------------2---|---------3------------------3-----||--3------------------------------|--1-------------------------------|
|-----------------------------------|-------------------------0-----||-----------------------------------|------------------3------------||-----------------------------------|-3---------2-------------------||--------------------2--------------|-------------------------------||--0--------4--------------4--------|-0-----------------------------||-----------------------------------|-------------------------------|
|--1-----------0--------------|---------------------0---------------||-----------------------------|--3----------------------------------||---------2--------------2----|--------------2----------------------||--0-----------2--------------|--3--------------------------3-------||-----------------------------|-------------------------------------||-----------------------------|---------------------3---------------|
|-----------------------------|--0----------------------||--1-------------0-1-3-1------|-------------1-----3-----||-----------------------------|--------2----------------||---------2-------------------|--0----------------------||--3--------------------------|-------------------------||-----------------------------|-------------------------|
|-----------------------|-----------------------||--3--------------------|-----------------------||-------------------0---|-----------------------||--------------0--------|--------------3--------||--------2--------------|--------2---------2----||--3--------------------|--3--------------------|
|---------------------------|---------------------------||---------------------------|--------------1--------3---||--0------------------------|--2-----0------------------||----------------0----------|---------------------------||----------2------------2---|---------------------------||--3------------------------|--3------------------------|
|---0----------------------|--3-------------------------||--------------------------|-------------------------1--||----------------0---------|-----------------0----------||---------2-------------2--|---------2------------------||---3----------------------|--3-------------------------||--------------------------|----------------------------|
|--1------------0---------|-------------0-----------||-------------------------|--3----------------------||---------0------------0--|--------0------------1---||--0----------------------|---------------------0---||---------------3---------|--2----------0-----------||-------------------------|-------------------------|
|-----------------------|--------------------------------||-----------------------|--------------------------------||--0--------------------|--2-----------------------------||--------------0--------|-----------------3--------------||--------2----------2---|----------3-------------3-------||--3--------------------|--1-----------------------------|
|-----------------------|-------------------0--||-----------------------|--------------3-------||-----------------------|--3------2------------||-------------2---------|----------------------||--0----4---------4-----|--0-------------------||-----------------------|----------------------|
|---1-----------0-----------|---------------------0------------||---------------------------|----3-----------------------------||---------2-------------2---|--------------2-------------0-----||---0-----------2-----------|----3-----------------------3-----||---------------------------|----------------------------------||---------------------------|----------------------3-----------|
|-------------------------------|--0------------------------||--1----------------------------|-----------------------3---||----------------------0-2-0----|-----------------0---------||----------2-------4------------|-----------3---------------||--3----------------------------|--3------------------------||-------------------------------|---------------------------|
|---------------------------|--------------------|||---3-----------------------|----------1---------|||------------------0--------|----------0---------|||------------3-----------3--|----------2---------|||---3-----------------------|----------3---------|||---------------------------|--------------------||
Tap to rate this tab
 
# A B C D E F G H I J K L M N O P Q R S T U V W X Y Z