Frederic Francois Chopin - Op 25 No 1 - Etude In Ab tab

Etude 1 Op 25 - F. Chopin
Transcribed for guitar by Marshall Harrison
http://www.marshallharrison.com

Stimmung : E A D G B E    Takt: 12/8

| | | | ||------------|--------------------------------------------------||-4----------|-4-----------4-----------4-----------4------------||------------|-----5-----5-----5-----5-----5-----5-----5-----5--||------------|---6-----6-----6-----6-----6-----6-----6-----6----||------------|-------6-----------6-----------6-----------6------||------------|--------------------------------------------------|
| | | | |--------------------------------------------------||-6-----------4-----------4-----------4------------||-----5-----5-----5-----5-----5-----5-----5-----5--||---6-----6-----6-----6-----6-----6-----6-----6----||-------6-----------6-----------6-----------6------||--------------------------------------------------|
| | | | |--------------------------------------------------||-------------------------6------------------------||-8---6-----6-8---6-----6-----6-----6-8---6-----6--||---8-----8-----8-----8-----8-----8-----8-----8----||-------6-----------6-----------6-----------6------||--------------------------------------------------|
| | | | |-6------------------------------------------------||-------------9-----------9-----------9------------||-----8-----8-----8-----8-----9-----9-----9-----9--||---10----10----10----10----10----10----10----10---||-------6-----------6-----------7-----------7------||--------------------------------------------------|
| | | | |--------------------------------------------------||-9-----------9-----------9-----------11-----------||-----10----10----10----10----10----10----10----10-||---11----11----11----11----11----11----11----11---||-------11----------11----------11----------10-----||--------------------------------------------------|
| | | | |-8------------------------------------------------||-------------11----------9------------------------||-----10----10----9-----9-----10----1010--8-----8--||---10----10----10----10----10----10----9-----9----||-------8-----------10----------11----------8------||--------------------------------------------------|
| | | | |--------------------------------------------------||-------------8-----------9------------------------||-10--8-----8-----8-----8-----7--------------------||---8-----8-----8-----8-----8-----6-8-8---6-----6--||-------8-----------8-----------8-------8-----8----||-------------------------------------------6------|
| | | | |--------------------------------------------------||--------------------------------------------------||-------------5-----------6------------------------||-8---6-----6-----6-----6-----5--------------------||---6-----6-----6-----6-----6-----4-6-6---4-6---4--||-------6-----------6-----------6-------6-----6----|
| | | | |--------------------------------------------------||-4-----------4-----------4-----------4------------||-----5-----5-----5-----5-----5-----5-----5-----5--||---6-----6-----6-----6-----6-----6-----6-----6----||-------6-----------6-----------6-----------6------||--------------------------------------------------|
| | | | |--------------------------------------------------||-6-----------4-----------4-----------4------------||-----5-----5-----5-----5-----5-----5-----5-----5--||---6-----6-----6-----6-----6-----6-----6-----6----||-------6-----------6-----------6-----------6------||--------------------------------------------------|
| | | | |-------------6-----------8------------------------||-------------------------------------8------------||-8---6-----6-----6-----6-----6-----6-----6-----6--||---8-----8-----8-----8-----8-----8-----8-----8----||-------6-----------6-----------6-----------6------||--------------------------------------------------|
| | | | |--------------------------------------------------||-11----------9-----------9-----------9------------||-----8-----8-----8-----8-----9-----9-----9-----9--||---10----10----10----10----10----10----10----10---||-------6-----------6-----------7-----------7------||--------------------------------------------------|
| | | | |-4-----------4-----------4-----------6------------||-----6-----6-----6-----6-----6-----6-----6-----6--||---6-----6-----6-----6-----6-----6-----6-----6----||-------6-----------6-----------6-----------6------||--------------------------------------------------||--------------------------------------------------|
| | | | |-8-----------3-----------3---0-----0-3---0-----0--||-----6-----6-----6-----6---1-----1-----1-----1----||---5-----5-----5-----5---------0-----------0------||-------5-----------5------------------------------||--------------------------------------------------||--------------------------------------------------|
| | | | |-3-----------3-----------3---1-----1-3---0-----0--||-----5-----5-----3-----3---------0-----0-----0----||---4-----4-----4-----4-----4----------------------||-------3-----------3-----------3-----------3------||--------------------------------------------------||--------------------------------------------------|
| | | | |--------------------------------------------------||-3-----------1-----------1-----------1------------||-----0-----0-----0-----0-----0-----0-----0-----0--||---3-----3-----2-----2-----0-----0-----2-----2----||-------3-----------3-----------3-----------3------||--------------------------------------------------|
| | | | |--------------------------------------------------||-1-----------1-----------2-----------1------------||---0-3---0-3---0-3---0-3---0-3---0-3---0-3---0-3--||--------------------------------------------------||-------3-----------3-----------3-----------3------||--------------------------------------------------|
| | | | |-------------------------0-----------1------------||-1-----------3---------------1-----1-----1-----1--||-----3-----3-----1-----1---0-----0-----1-----1----||---3-----3-----3-----3----------------------------||-------3-----------3-----------3-----------3------||--------------------------------------------------|
| | | | |-------------------------1------------------------||-4---2-----2-4---2-----2-----2-----2-4---2-----2--||---3-----3-----3-----3-----3-----3-----3-----3----||-------1-----------1-----------1-----------1------||--------------------------------------------------||--------------------------------------------------|
| | | | |-------------------------3-----------4------------||-4-----------6------------------------------------||-----6-----6-----5-----5-----5-----5-----5-----5--||---6-----6-----6-----6-----6-----6-----6-----6----||-------6-----------6-----------6-----------6------||--------------------------------------------------|
| | | | |-3-----------3-----------4-----------1------------||-----4-----4-----4-----4-----3-----3-----3-----3--||---5-----5-----5-----5-----5-----5-----4-----4----||-------5-----------5-----------6-----------3------||--------------------------------------------------||--------------------------------------------------|
| | | | |-0-----------------------1-----------0------------||-----1-----1-3---0-----0-----0-----0-----0-----0--||---0-----0-----1-----1-----1-----1-----1-----1----||-------2-----------0-----------3-----------2------||--------------------------------------------------||--------------------------------------------------|
| | | | |-0-----------------------1-----------0------------||-----1-----1-3---0-----0-----0-----0-----0-----0--||---0-----0-----1-----1-----1-----1-----0-----0----||-------2-----------0-----------3-----------2------||--------------------------------------------------||--------------------------------------------------|
| | | | |-0-----------------------2-----------0------------||-----2-----2-3---0-----0-----0-----0-----3-----3--||---2-----2-----2-----2-----2-----2-----1-----1----||-------2-----------0-----------4-----------2------||--------------------------------------------------||--------------------------------------------------|
| | | | |-0-----------5-----------7-----------8------------||-----2-----2-----5-----5-----7-----7-----7-----7--||---2-----2-----5-----5-----8-----8-----8-----8----||-------2-----------7-----------7-----------6------||--------------------------------------------------||--------------------------------------------------|
| | | | |-8-----------6-----------9------------------------||-----7-----6-----6-----6-------------6------------||---6-----6-----6-----6-------6-----6-----6-----6--||---------------------------8-----8-----8-----8----||-------8-----------8-----------8-----------8------||--------------------------------------------------|
| | | | |-6-----------4-----------8------------------------||-----4-----4-----4-----4-------------4------------||---5-----5-----5-----5-------5-----5-----5-----5--||---------------------------6-----6-----6-----6----||-------6-----------6-----------6-----------6------||--------------------------------------------------|
| | | | |--------------------------------------------------||--------------------------------------------------||-8-----------9-----------10----------8------------||-----8-----8-----8-----8-----8-----8-----8-----8--||---10----10----10----10----10----10----10----10---||-------9-----------9-----------9-----------9------|
| | | | |-------------------------------------8------------||-----------------------------------------6-----6--||-6-----------5-----------5-------------8-----8----||-----6-----6-----6-----6-------------------10-----||---8-----8-----8-----8-----6-8---6-8--------------||-------9-----------8-----------8------------------|
| | | | |-8-----------------------9-----------0------------||-------------11-----------------------------------||-----10----10----10----10----6-----6-----6-----6--||---11----11----11----11----8-----8-----8-----8----||-------8-----------8-----------7-----------7------||--------------------------------------------------|
| | | | |-------------------------8------------------------||-11----------9------------------------------------||-----8-----8-----8-----8-----5-----5-8---5-----5--||---10----10----10----10----6-----6-----6-----6----||-------6-----------6-----------6-----------6------||--------------------------------------------------|
| | | | |--------------------------------------------------||-------------6-----------7-----------6------------||-8---5-----5-----5-----5-----5-----5-----5-----5--||---7-----7-----7-----7-----7-----7-----7-----7----||-------6-----------6-----------6-----------6------||--------------------------------------------------|
| | | | |--------------------------------------------------||-6-----------8-----------9-----------8------------||-----6-----6-----6-----6-----7-----7-----7-----7--||---8-----8-----8-----8-----9-----9-----9-----9----||-------4-----------8-----------8-----------8------||--------------------------------------------------|
| | | | |-------------------------------------14-----------||-8-----------9-----------10--------------13----13-||-----8-----8-----8-----8-----8-----8---14----14---||---10----10----10--6-10----10--7-10--------13-----||-------6------------------------------------------||--------------------------------------------------|
| | | | |-13----------------------9------------------------||-----9-----9-11--9-----9-----9-----9-8------------||---10----10----10----10----9-----9-------8-----8--||-------8-----------8-----------8-------11----11---||-------------------------------------------10-----||--------------------------------------------------|
| | | | |-4------------------------------------------------||-------------4-----------4-----------4------------||-----5-----5-----5-----5-----5-----5-----5-----5--||---6-----6-----6-----6-----6-----6-----6-----6----||-------6-----------6-----------6-----------6------||--------------------------------------------------|
| | | | |-------------------------8------------------------||-6-----------4-----------------------8------------||-----6-----6-----6-----6-----6-----6-----6-----6--||---8-----8-----8-----8-----8-----8-----8-----8----||-------6-----------6-----------6-----------6------||--------------------------------------------------|
| | | | |-4------------------------------------------------||-------------4-----------4-----------4------------||-----5-----5-----5-----5-----5-----5-----5-----5--||---6-----6-----6-----6-----6-----6-----6-----6----||-------6-----------6-----------6-----------6------||--------------------------------------------------|
| | | | |-------------------------13-----------------------||-6-----------------------------------8------------||-----6-----6-8---6-----6-10-6-----6-----6-----6--||---8-----8-----8-----8-----8-----8-----8-----8----||-------6-----------6-----------6-----------6------||--------------------------------------------------|
| | | | |--------------------------------------------------||-9-----------------------6------------------------||-----5-----5-8---5-----5-----5-----5-8---5-----5--||---6-----6-----6-----6-----6-----6-----6-----6----||-------6-----------6-----------6-----------6------||--------------------------------------------------|
| | | | |--------------------------------------------------||--------------------------------------------------||-6-----------5-----------6-----------5------------||-----6-----6-----6-----6-----6-----6-----6-----6--||---6---4-6-----6---3-6-----6---4-6-----6---3-6----||--------------------------------------------------|
| | | | |--------------------------------------------------||--------------------------------------------------||-3-----------1-----------3-----------1------------||-----1-----1-----1-----1-----1-----1-----1-----1--||---3---1-3-----3-----3-----3---1-3-----3-----3----||-------------------4-----------------------4------|
| | | | |--------------------------------------------------||--------------------------------------------------||-3-----------1-----------3-----------1------------||-----1-----1-----1-----1-----1-----1-----1-----1--||---3---1-3-----3-----3-----3---1-3-----3-----3----||-------------------4-----------------------4------|
| | | | |---------------------8-1116118---------------8-11-||-------------------9-4-9-139-4-9-----------9-4-9--||-----------------8-5-----------5-8-------8-5------||---------------106---------------6-10--106--------||-----------6-116-------------------6-116----------||-------4-8-4-8-----------------------4------------|
| | | | |-16118---------------8-1116118---------------8-11-||-139-4-9-----------9-4-9-139-4-9-----------9-4-9--||-------5-8-------8-5-----------5-8-------8-5------||---------6-10--106---------------6-10--106--------||-----------6-116-------------------6-116----------||-------------4-----------------------4------------|
| | | | |-16118--------------------------------------------||-139-4-9-----------13----------13----------13-----||-------5-8-------138-13------138-13------138-13---||---------6-10--106---6-10--106---6-10--106---6-10-||-----------6-116-------6-116-------6-116-------6--||-------------4-----------4-----------4------------|
| | | | |--------------------------------------------------||-------13----------13----------13----------13-----||-----138-13------138-13------138-13------138-13---||---106---6-10--106---6-10--106---6-10--106---6-10-||-116-------6-116-------6-116-------6-116-------6--||-4-----------4-----------4-----------4------------|
| | | | |-------------16-----------------------------------||-------------16-----------------------------------||-------------13-----------------------------------||-------------10----------------------10-----------||-11----------11----------------------6------------||-4-------------------------------1011111311131113-|
| | | | |--------------------------------------------------||--------------------------------------------------||-5------------------------------------------------||-6------------------------------------------------||-6------------------------------------------------||-4------------------------------------------------|
Created with TablEdit http://www.tabledit.com/
Tap to rate this tab
 
# A B C D E F G H I J K L M N O P Q R S T U V W X Y Z