Freedom Call – Freedom Call tab

Freedom Call - Freedom Call....by Niklas Ekholm(NoSwap@postmark.net)

Tune Instruments down ½ step

I have a lousy timing so dont care about that....

[RIFF A]

|-----------------|-----------------|-----------------|-----------------||-----------------|-----------------|-----------------|-----------------||7-------9-10--9--|12--109-10---7---|10---9-7-5----7-9|7-------9-10--9--||-0-0-0-0----00-00|--00------00---00|--00-------0-0---|-0-0-0-0----00-00||-----------------|-----------------|-----------------|-----------------||-----------------|-----------------|-----------------|-----------------|
| pm..... pm pm pm pm pm pm pm. pm..... pm pm|| ||-----------------|-----------------|-----------------|-----------------||-----------------|-----------------|-----------------|-----------------||-----------------|-----------------|-----------------|-----------------||-----------------|-----------------|-----------------|-----------------||-----------------|-----------------|-----------------|-----------------||-----------------|-----------------|-----------------|-----------------|
| || ||-----------------|-----------------|-----------------|-----------------||-----------------|-----------------|-----------------|-----------------||-----------------|-----------------|-----------------|-----------------||-----------------|-----------------|-----------------|-----------------|
(cont)|-----------------|-----------------|-----------------|-----------------||-----------------|-----------------|-----------------|-----------------||-7--109-10---7---|12--109-10---7---|910--9-7-5----7-9|7-------9-10--9--||--00------00---00|--00------00---00|--00-------0-0---|-0-0-0-0----00-00||-----------------|-----------------|-----------------|-----------------||-----------------|-----------------|-----------------|-----------------|
| pm pm pm pm pm pm pm. pm..... pm pm|| ||-----------------|-----------------|-----------------|-----------------||-----------------|-----------------|-----------------|-----------------||-----------------|-----------------|-----------------|-----------------||-----------------|-----------------|-----------------|-----------------||-----------------|-----------------|-----------------|-----------------||-----------------|-----------------|-----------------|-----------------|
| || ||-----------------|-----------------|-----------------|-----------------||-----------------|-----------------|-----------------|-----------------||-----------------|-----------------|-----------------|-----------------||-----------------|-----------------|-----------------|-----------------|
(cont)|-----------------|-----------------|-----------------|-----------------||-----------------|-----------------|-----------------|-----------------||7-------9-10--9--|12--109-10---7---|10---9-7-5----7-9|7-------9-10--9--||-0-0-0-0----00-00|--00------00---00|--00-------0-0---|-0-0-0-0----00-00||-----------------|-----------------|-----------------|-----------------||-----------------|-----------------|-----------------|-----------------|
| pm..... pm pm pm pm pm pm pm. pm..... pm pm|| ||-----------------|-----------------|-----------------|-----------------||-----------------|-----------------|-----------------|-----------------||7----------------|-----------------|10-------12------|-----------------||7----------------|-----------------|10-------12------|-5---------------||5----------------|-----------------|8--------10------|-5---------------||-----------------|-----------------|-----------------|-3---------------|
| || ||-----------------|-----------------|-----------------|-----------------||-----------------|-----------------|3---------5------|-----------------||5----------------|-----------------|-----------------|-----------------||-----------------|-----------------|-----------------|-3---------------|
(cont)|-----------------|-----------------|-----------------|-----------------||-----------------|-----------------|-----------------|-----------------||7-------9-10--7--|12--109-10---7---|910--9-7-5----7-9|-----------------||-0-0-0-0----00-00|--00------00---00|--00-------0-0---|-----------------||-----------------|-----------------|-----------------|-----------------||-----------------|-----------------|-----------------|-----------------|
| pm..... pm pm pm pm pm pm. pm. || ||-----------------|-----------------|-----------------|-----------------||-----------------|-----------------|-----------------|-----------------||-7--------10-----|-12--------------|-10------12------|-----------------||-7--------10-----|-12------5-------|-10------12------|5----------------||-5---------8-----|-10------5-------|--8------10------|5----------------||-----------------|---------3-------|-----------------|3----------------|
| || ||-----------------|-----------------|-----------------|-----------------||-----------3-----|--5--------------|--3-------5------|-----------------||-5---------------|-----------------|-----------------|-----------------||-----------------|---------3-------|-----------------|3----------------| [ENDRIFF A]
This part is played by a piano. I have not piano so i play it like this:[RIFF B]|-----------------|-----------------|-----------------|-----------------||-----------------|-----------------|-----------------|-----------------||-7-7-7-7-7-7-7-7-|-7-7-7-7-7-7-7-7-|-7-7-7-7-7-7-7-7-|7-7-7-7-7-7-7-7--||--7-7-7-7-7-7-7-7|--7-7-7-7-7-7-7-7|--7-7-7-7-7-7-7-7|-7-7-7-7-7-7-7-7-||-----------------|-----------------|-----------------|-----------------||-----------------|-----------------|-----------------|-----------------|
| || ||-----------------|-----------------|-----------------|-----------------||-----------------|-----------------|-----------------|-----------------||-7---------------|-----------------|-----------------|-----------------||-7---------------|-----------------|-----------------|-----------------||-5---------------|-----------------|-----------------|-----------------||-----------------|-----------------|-----------------|-----------------|
| || ||-----------------|-----------------|-----------------|-----------------||-----------------|-----------------|-----------------|-----------------||-5---------------|-----------------|-3--------1------|-----------------||-----------------|-----------------|-----------------|-----------------| [ENDRIFF B]Play RIFF B once again
[Riff C]|-----------------|-----------------|-----------------|-----------------||-----------------|-----------------|-----------------|-----------------||-7------10-------|-5---------------|-10-------5------|-----------------||-7------10-------|-5-------7-------|-10-------5------|-5---------------||-5-------8-------|-3-------7-------|--8-------3------|-5---------------||-----------------|---------5-------|-----------------|-3---------------|
| || ||-----------------|-----------------|-----------------|-----------------||-----------------|-----------------|-----------------|-----------------||-----------------|-----------------|-----------------|-----------------||-----------------|-----------------|-----------------|-----------------||-----------------|-----------------|-----------------|-----------------||-----------------|-----------------|-----------------|-----------------|
| || ||-----------------|-----------------|-----------------|-----------------||----------3------|-----------------|-3---------------|-----------------||-5---------------|-3---------------|----------3------|-----------------||-----------------|---------5-------|-----------------|-3---------------|
(cont)|-----------------|-----------------|-----------------|-----------------||-----------------|-----------------|-----------------|-----------------||-7------10-------|-5---------------|-10------12--12--|-----------------||-7------10-------|-5-------7-------|-10------12--12--|-5---------------||-5-------8-------|-3-------7-------|--8------10--10--|-5---------------||-----------------|---------5-------|-----------------|-3---------------|| || |
|-----------------|-----------------|-----------------|-----------------||-----------------|-----------------|-----------------|-----------------||-----------------|-----------------|-----------------|-----------------||-----------------|-----------------|-----------------|-----------------||-----------------|-----------------|-----------------|-----------------||-----------------|-----------------|-----------------|-----------------|
| || ||-----------------|-----------------|-----------------|-----------------||----------3------|-----------------|-3--------5--5---|-----------------||-5---------------|-3---------------|-----------------|-----------------||-----------------|---------5-------|-----------------|-3---------------| [ENDRIFF C]
[RIFF D]|-----------------|-----------------|-----------------|-----------------||-----------------|-----------------|-----------------|-----------------||7--------------5-|-7---------------|7--------------5-|-7------3----5---||7--------------5-|-7-----7-5-------|7--------------5-|-7------3----5---||5--5--5--5--5--3-|-5-5-5-----8-7---|5--5--5--5--5--3-|-5------1----3---||-----------------|-----------------|-----------------|-----------------|
| pm........ pm. pm........ || ||-----------------|-----------------|-----------------|-----------------||-----------------|-----------------|-----------------|-----------------||-----------------|-----------------|-----------------|-----------------||-----------------|-----------------|-----------------|-----------------||-----------------|-----------------|-----------------|-----------------||-----------------|-----------------|-----------------|-----------------|
| || ||-----------------|-----------------|-----------------|-----------------||-----------------|-----------------|-----------------|-----------------||5--------------3-|-5---------------|5--------------3-|-5------1---3----||-----------------|-----------------|-----------------|-----------------|
(cont)|-----------------|-----------------|-----------------|-----------------||-----------------|-----------------|-----------------|-----------------||7--------------5-|-7---------------|7----------------|-3------5--------||7--------------5-|-7-----7-5-------|7----------------|-3------5--------||5--5--5--5--5--3-|-5-5-5-----8-7---|5--5--5--5--5----|-1------3--------||-----------------|-----------------|-----------------|-----------------|
| pm........ pm. pm........ || ||-----------------|-----------------|-----------------|-----------------||-----------------|-----------------|-----------------|-----------------||-----------------|-----------------|-----------------|-----------------||-----------------|-----------------|-----------------|-----------------||-----------------|-----------------|-----------------|-----------------||-----------------|-----------------|-----------------|-----------------|
| || ||-----------------|-----------------|-----------------|-----------------||-----------------|-----------------|-----------------|-----------------||5--------------3-|-5---------------|5----------------|-1------3--------||-----------------|-----------------|-----------------|-----------------| [ENDRIFF D]Play RIFF D once again
[RIFF F]|-----------------|-----------------|-----------------|-----------------||-----------------|-----------------|-----------------|-----------------||-----------------|-----------------|-----------------|-----------------||-----------------|-----------------|-----------------|-----------------||-----------------|-3-3-3-3-3-3-3-3-|-8-8-8-8-8-8-8-8-|-----------------||-1-1-1-1-1-1-1-1-|-----------------|-----------------|-5-5-5-5-5-5-5-5-|
| pm................................................................... || ||-----------------|-----------------|-----------------|-----------------||-----------------|-----------------|-----------------|-----------------||-----------------|-----------------|-----------------|-----------------||-----------------|-----------------|-----------------|-----------------||-----------------|-3-3-3-3-3-3-3-3-|-8-8-8-8-8-8-8-8-|-----------------||-1-1-1-1-1-1-1-1-|-----------------|-----------------|-5-5-5-5-5-5-5-5-|
| pm................................................................... || ||-----------------|-----------------|-----------------|-----------------||-----------------|-----------------|-----------------|-----------------||-----------------|-3-3-3-3-3-3-3-3-|-8-8-8-8-8-8-8-8-|-----------------||-1-1-1-1-1-1-1-1-|-----------------|-----------------|-5-5-5-5-5-5-5-5-| [END RIFFF]
Play RIFF F once again Play RIFF D once Play RIFF F twice
[RIFF G]|-----------------|-----------------|-----------------|-----------------||-----------------|-10--------------|-----------------|-10--------------||-7---9--10---12--|-9---5---7--7----|-7---9--10---12--|-9---5---7--7----||-7---9--10---12--|-7---5---7--7----|-7---9--10---12--|-7---5---7--7----||-5---7---8---10--|-----3---5--5----|-5---7---8---10--|-----3---5--5----||-----------------|-----------------|-----------------|-----------------|
| || ||-----------------|-----------------|-----------------|-----------------||-----------------|-10--------------|-----------------|-10--------------||-7---9--10---12--|-9---5---7--7----|-7---9--10---12--|-9---5---7--7----||-7---9--10---12--|-7---5---7--7----|-7---9--10---12--|-7---5---7--7----||-5---7---8---10--|-----3---5--5----|-5---7---8---10--|-----3---5--5----||-----------------|-----------------|-----------------|-----------------|
| || ||-----------------|-----------------|-----------------|-----------------||---------3----5--|-7---------------|---------3----5--|-7---------------||-5---7-----------|-----3---5--5----|-5---7-----------|-----3---5--5----||-----------------|-----------------|-----------------|-----------------|
(cont)|-----------------|-----------------|-----------------|-----------------||-----------------|-----------------|-----------------|-----------------||-----------------|-----------------|-----------------|----------7---7--||-5-------------7-|-8-------------8-|-7---------------|----------7---7--||-5-------------7-|-8-------------8-|-7---------------|----------5---5--||-3-------------5-|-6-------------6-|-5---------------|-----------------|
| pm... || ||-----------------|-----------------|-----------------|-----------------||-----------------|-----------------|-----------------|-----------------||-----------------|-----------------|-----------------|-----------------||-5-------------7-|-8-------------8-|-7---------------|-----------------||-5-------------7-|-8-------------8-|-7---------------|-----------------||-3-------------5-|-6-------------6-|-5---------------|-----------------|
| || ||-----------------|-----------------|-----------------|-----------------||-----------------|-----------------|-----------------|-----------------||-----------------|-----------------|-----------------|-----------------||-3-3-3-3-3-3-3-3-|-6-6-6-6-6-6-6-6-|-5-5-5-5-5-5-5-5-|-5-5-5-5-5-5-5-5-| [ENDRIFF G]
[RIFF H]Trumpet arranged for guitar|-----------------|-----------------|-----------------|-----------------||-----------------|-17--15--17~~----|-----------------|-----------------||-9---------------|-----------------|-----------------|--14-12-14-12-11-||-9---------------|-----------------|-5---------------|-----------------||-7---------------|-----------------|-5---------------|-----------------||-----------------|-----------------|-3---------------|-----------------|
| || ||-----------------|-----------------|-----------------|-----------------||-----------------|-----------------|-----------------|-----------------||-9---------------|-5---------------|-----------------|-7---------------||-9---------------|-5---------------|-5---------------|-7---------------||-7---------------|-3---------------|-5---------------|-5---------------||-----------------|-----------------|-3---------------|-----------------|
| || ||-----------------|-----------------|-----------------|-----------------||-----------------|-----------------|-----------------|-----------------||-7-7-7-7-7-7-7-7-|-3-3-3-3-3-3-3-3-|-----------------|-5-5-5-5-5-5-5-5-||-----------------|-----------------|-3-3-3-3-3-3-3-3-|-----------------|
(cont)|-----------------|-----------------|-----------------|-----------------||-----------------|-----------------|-----------------|-----------------||-12~~~-----------|-5---------------|-----------------|--14-12-14-12-11-||-----------------|-5---------------|-5---------------|-----------------||-----------------|-3---------------|-5---------------|-----------------||-----------------|-----------------|-3---------------|-----------------|
| || ||-----------------|-----------------|-----------------|-----------------||-----------------|-----------------|-----------------|-----------------||-9---------------|-5---------------|-----------------|-7---------------||-9---------------|-5---------------|-5---------------|-7---------------||-7---------------|-3---------------|-5---------------|-5---------------||-----------------|-----------------|-3---------------|-----------------|
| || ||-----------------|-----------------|-----------------|-----------------||-----------------|-----------------|-----------------|-----------------||-7-7-7-7-7-7-7-7-|-3-3-3-3-3-3-3-3-|-----------------|-5-5-5-5-5-5-5-5-||-----------------|-----------------|-3-3-3-3-3-3-3-3-|-----------------|
(cont)|-----------------|-----------------|-----------------|-----------------||-----------------|-17--15--17~~----|-----------------|-----------------||-12~~~-----------|-----------------|-----------------|--14-12-14-12-11-||-----------------|-----------------|-5---------------|-----------------||-----------------|-----------------|-5---------------|-----------------||-----------------|-----------------|-3---------------|-----------------|
| || ||-----------------|-----------------|-----------------|-----------------||-----------------|-----------------|-----------------|-----------------||-9---------------|-5---------------|-----------------|-7---------------||-9---------------|-5---------------|-5---------------|-7---------------||-7---------------|-3---------------|-5---------------|-5---------------||-----------------|-----------------|-3---------------|-----------------|
| || ||-----------------|-----------------|-----------------|-----------------||-----------------|-----------------|-----------------|-----------------||-7-7-7-7-7-7-7-7-|-3-3-3-3-3-3-3-3-|-----------------|-5-5-5-5-5-5-5-5-||-----------------|-----------------|-3-3-3-3-3-3-3-3-|-----------------|
(cont)|-----------------|-----------------|-----------------|-----------------||-----------------|-----------------|-----------------|-----------------||-12~~~-----------|-5---------------|-----------------|--14-12-14-12-11-||-----------------|-5---------------|-5---------------|-----------------||-----------------|-3---------------|-5---------------|-----------------||-----------------|-----------------|-3---------------|-----------------|
| || ||-----------------|-----------------|-----------------|-----------------||-----------------|-----------------|-----------------|-----------------||-9---------------|-5---------------|-----------------|-7---------------||-9---------------|-5---------------|-5---------------|-7---------------||-7---------------|-3---------------|-5---------------|-5---------------||-----------------|-----------------|-3---------------|-----------------|
| || ||-----------------|-----------------|-----------------|-----------------||-----------------|-----------------|-----------------|-----------------||-7-7-7-7-7-7-7-7-|-3-3-3-3-3-3-3-3-|-----------------|-5-5-5-5-5-5-5-5-||-----------------|-----------------|-3-3-3-3-3-3-3-3-|-----------------|
|-----------------|-----------------|-----------------|--15---15--------||-----------------|-13---13---------|--17--17---------|-----------------||-12-12-----------|-----------------|-----------------|-----------------||-----------------|-----------------|-----------------|-----------------||-----------------|-----------------|-----------------|-----------------||-----------------|-----------------|-----------------|-----------------|
| || ||-----------------|-----------------|-----------------|-----------------||-----------------|-----------------|-----------------|-----------------||-5---------------|-----------------|-----------------|-----------------||-5---------------|-----------------|-----------------|-----------------||-3---------------|-----------------|-----------------|-----------------||-----------------|-----------------|-----------------|-----------------|
| || ||-----------------|-----------------|-----------------|-----------------||-----------------|-----------------|-----------------|-----------------||-3---------------|-----------------|-----------------|-----------------||-----------------|-----------------|-----------------|-----------------| [ENDRIFF H]
Play RIFF F twice Play RIFF G once Play RIFF H once
[RIFF I]|-----------------|-----------------|-----------------|-----------------||-----------------|-----------------|-----------------|-----------------||-9-9-9-9-9-9-9-9-|-9-9-9-9-9-9-9-9-|-9-9-9-9-9-9-9-9-|-9-9-9-9-9-9-9-9-||-9-9-9-9-9-9-9-9-|-9-9-9-9-9-9-9-9-|-9-9-9-9-9-9-9-9-|-9-9-9-9-9-9-9-9-||-7-7-7-7-7-7-7-7-|-7-7-7-7-7-7-7-7-|-7-7-7-7-7-7-7-7-|-7-7-7-7-7-7-7-7-||-----------------|-----------------|-----------------|-----------------|
| pm................................................................... || ||-----------------|-----------------|-----------------|-----------------||-----------------|-----------------|-----------------|-----------------||-----------------|-----------------|-----------------|-----------------||-----------------|-----------------|-----------------|-----------------||-----------------|-----------------|-----------------|-----------------||-----------------|-----------------|-----------------|-----------------|
| || ||-----------------|-----------------|-----------------|-----------------||-----------------|-----------------|-----------------|-----------------||-7--7----------7-|-7--7------------|--5--------------|-3---------------||-----------------|-----------------|-----------------|-----------------| [ENDRIFF I]
Play RIFF I three times more... One guitar makes a pickslide..
[RIFF J]|-----------------|-----------------|-----------------|-----------------||-----------------|-12-------10-----|-10-----------12-|-----------------||-9---------------|--------------12-|-----------------|-12--------------||-----------------|-----------------|-----------------|-----------------||-----------------|-----------------|-----------------|-----------------||-----------------|-----------------|-----------------|-----------------|
| || ||-----------------|-----------------|-----------------|-----------------||-----------------|-----------------|-----------------|-----------------||-9---------------|-----------------|-7---------------|-5---------------||-9---------------|-5---------------|-7---------------|-5---------------||-7---------------|-5---------------|-5---------------|-3---------------||-----------------|-3---------------|-----------------|-----------------|
| || ||-----------------|-----------------|-----------------|-----------------||-----------------|-----------------|-----------------|-----------------||-7-7-7-7-7-7-7-7-|-----------------|-5-5-5-5-5-5-5-5-|-3-3-3-3-3-3-3-3-||-----------------|-3-3-3-3-3-3-3-3-|-----------------|-----------------| [END RIFFJ]
Play RIFF J once again
[RIFF K](solo)|-----------------|-----------------|-----------------|-----------------||-15b17----r---15b|17----15b17r--13-|-12-13-15--------|-----------------||-----------------|-----------------|---------14-12-14|16-14~~----141617||-----------------|-----------------|-----------------|-----141617------||-----------------|-----------------|-----------------|-----------------||-----------------|-----------------|-----------------|-----------------|
| || ||-----------------|-----------------|-----------------|-----------------||-----------------|-----------------|-----------------|-----------------||-9------------5--|-----------------|---------------7-|-----------------||-9------------5--|-----------------|-5-------------7-|-----------------||-7------------3--|-----------------|-5-------------5-|-----------------||-----------------|-----------------|-3---------------|-----------------|
| || ||-----------------|-----------------|-----------------|-----------------||-----------------|-----------------|-----------------|-----------------||-7-7-7-7-7-7-7-3-|-3-3-3-3-3-3-3-3-|---------------5-|-5-5-5-5-5-5-5-5-||-----------------|-----------------|-3-3-3-3-3-3-3---|-----------------|
(cont)|-----------------|-----------------|-----------------|-----------------||-----------------|-----------------|-17---19--20---19|~~~~-------------||-16-----------16-|-----------------|-----------------|-----------------||-----17----------|-17--------------|-----------------|-----------------||---------17------|-----17----------|-----------------|-----------------||-----------------|-----------------|-----------------|-----------------|
| || ||-----------------|-----------------|-----------------|-----------------||-----------------|-----------------|-----------------|-----------------||-9---------------|-----------------|-----------------|----------8--8---||-9------------5--|-----------------|-7-------------9-|----------8--8---||-7------------5--|-----------------|-7-------------9-|----------6--6---||--------------3--|-----------------|-5-------------7-|-----------------|
| pm.. || ||-----------------|-----------------|-----------------|-----------------||-----------------|-----------------|-----------------|-----------------||-7-7-7-7-7-7-7---|-----------------|-----------------|-----------------||---------------3-|-3-3-3-3-3-3-3-3-|-5-5-5-5-5-5-5-7-|-7-7-7-7-7-7-7-7-|
(cont) T T T T|-15b17-------r-15|-14-15-14----12--|---------------------------|-----------------||-----------------|----------15-----|201512201512201512201512---|-----------------||-----------------|-----------------|------------------------14~|--------------141617||-----------------|-----------------|---------------------------|----------1
21415-||-----------------|-----------------|---------------------------|-----121415------||-----------------|-----------------|---------------------------|121415-----------|
| pm...............| | |
|-----------------|-----------------|---------------------------|-----------------||-----------------|-----------------|---------------------------|-----------------||-9------------5--|-----------------|-------------------------7-|-----------------||-9------------5--|-----------------|-5-----------------------7-|-----------------||-7------------3--|-----------------|-5-----------------------5-|-----------------||-----------------|-----------------|-3-------------------------|-----------------|
| | | |
|-----------------|-----------------|---------------------------|-----------------||-----------------|-----------------|---------------------------|-----------------||-7-7-7-7-7-7-7-3-|-3-3-3-3-3-3-3-3-|-------------------------5-|-5-5-5-5-5-5-5-5-||-----------------|-----------------|-3---3--3---3--3---3--3----|-----------------|
(cont)|-----------------|-----------------|-----------------|-----------------||-----------------|-----------------|-----------------|-----------------||-16---17-19----17|------16----12---|-14--16--17---16~|~~~~-------------||-----------------|-----------------|-----------------|-----------------||-----------------|-----------------|-----------------|-----------------||-----------------|-----------------|-----------------|-----------------|
| || ||-----------------|-----------------|-----------------|-----------------||-----------------|-----------------|-----------------|-----------------||-9---------------|-----------------|-----------------|-----------------||-9------------5--|-----------------|-7-------------9-|-----------------||-7------------5--|-----------------|-7-------------9-|-----------------||--------------3--|-----------------|-5-------------7-|-----------------|
| || ||-----------------|-----------------|-----------------|-----------------||-----------------|-----------------|-----------------|-----------------||-7-7-7-7-7-7-7---|-----------------|-----------------|-----------------||---------------3-|-3-3-3-3-3-3-3-3-|-5-5-5-5-5-5-5-7-|-7-7-7-7-7-7-7-7-| [ENDRIFF J]solo
Play RIFF H once Play RIFF I twice Play RIFF I twice while fading LYRICS: An island lies in the sea of stars So far from time The wisemen came foreelling my heart I'll reach for the sun Deep inside my eyes you see the tears of long ago Telling tales of loneliness before Standing by my side you feel the fears of once before Telling tales of emptiness and more Strangers in the night Rising up to fight They're rising up to bust the demon's spell Freedom Call, the cry of barren souls The surveillance of mankind will fall Freedom Call, the cry of barren souls Under surveillance we never willfall I spent all my life to get salvation from afar I've seen stairs, arisen from below Strangers in the night Rising up to fight They're rising up to bust the demon's spell Once upon a time, our world was in decline On a storytellers night, I felt the breeze of life And I saw the rays of light, across the burning sky When the master sent the sign, reflecting all devine
Please rate this tab:
x1.0