Fuel - Hemorrage In My Hands tab

Tabbed By: Josh Daley

Tuning Eb Ab Db Gb Bb Eb



Intro:

--2--0--0----|--3--2--0----|--4--2--0----|--4--2--2----|--2--0--2----|--------0----|
Verse:
----------0--------------0---------------0--------------0--------|--------3---3----------3---3-----------3---3----------3---3------|------0-------0------0-------0-------0-------0------0-------0----|----4--------------4-----------4---4--------------4-----------4--|--2-------------0------------------------------0-----------------|---------------------------------3-------------------------------|
First Chorus:
--0--2---0----|--0--3---2----|--0--2---2----| x2--2--0---2----|--2------0----|--0-----------|
-----2--0--2--|-----3--2--2--|-----2--2--2--|--5--0--2--2--|--5-----0--x--|--3--------2--|
-----2-----0--|-----3-----0--|-----2--3--3--|--5--0--4--4--|--5-----4--4--|--3-----2--2--|
Second Chorus:
-----x--0-x--0--|-----3--2-3--2--|-----2--2-2--2--|--2--0--2-0--2--|--2-----0----0--|--0-------------|
-----x--0-x--|-----3--2-2--|-----2--2-2--|--2--0--2-2--|--2-----0-x--|--0-------2--|
-----x--0--2--|-----3--2--2--|-----2--2--2--|--5--0--2--2--|--5-----0--x--|--3--------2--|
-----x-----0--|-----3-----0--|-----2--3--3--|--5--0--4--4--|--5-----4--4--|--3-----2--2--|
Bridge:
----------------------------------------------------|----------------------------------------------------|----------------------------------------------------|----------------------------------------------------|------------------2-2-2-2---2-2-2-2-4-4-4-4-5-5-5-4-|--3-3-3-3-5-5-5-5---------5-------------------------|
-------------------------------------|-------------------------------------|-------------------------------------|------------------------2--4----4----|--5-5-5-5-7-7-7-7-9-9-9-2--4----4----|------------------------0--2----2----|
Pre-chorus (used once just before final chorus):
----------0--------------0---------------0--------------0--------|--------3---3----------3---3-----------3---3----------3---3------|------0-------0------0-------0-------0-------0------0-------0----|----4--------------4-----------4---4--------------4-----------4--|--2-------------4----------------5-------------------------------|-----------------------------------------------2-----------------|
Final Chorus:
--0--x--0-x--0--|--0--3--2-3--2--|--0--2--2-2--2--|--2--0--2-0--2--|--2-----0----0--|--0-------------|
--0--x--0-x--|--0--3--2-2--|--0--2--2-2--|--2--0--2-2--|--2-----0-x--|--0-------2--|
-----x--0--x--|-----3--2--2--|-----2--2--2--| x3--5--0--2--2--|--5-----0--x--|--3--------2--|
Outro:
--0--x--3--2--|--2--2--3--3--|--2--2--0--2--| x4--2--2--0--0--|--0--x--x-----|-----2--3-----|
--0--x--3--2--0----|--2--2--3--3--2----|--2--2--0--2--2----|--2--2--0--0--2----|--0--x--x-----0----|-----2--3----------|
Tap to rate this tab
 
# A B C D E F G H I J K L M N O P Q R S T U V W X Y Z