Fueled By Fire - Spread The Fire tab

 http://www.fueledbyfire.webs.com/



Riff 1:


1--------------------------------------|2--------------------------------------|3---------------4----5----7----7-7-----|4----------2----4----5----7----7-7-----|5----------2----2----3----5----5-5-----|6----------0---------------------------|
Riff 2:
1-------------------------------------------------------------------------|2-------------------------------------------------------------------------|3-------------------------------------------------------------------------|4---------------------4-/3---------------2--------------4/5---------------|5-----2---------------2/-1---------------2--------------2/3-----------5-0-|6-----0--0-0-0-0-0-0--------0-0-0-0-0-0--0--0-0-0-0-0-0------0-0-0-0--3-2-|
Riff 3:
1-------------------------------------------------|2-------------------------------------------------|3-------------------------------------------------|4-------------------------------------------------|5----7--6--5---------2----------------------------|6----5--4--3--0-1-3--0--0-0-0--0-0-0--0-0-0--0----|
Riff 4:
1------------------------------------------------|2------------------------------------------------|3------------------------------------------------|4---------------------------------5--8--4--7-----|5---------------------------------3--6--2--5-----|6-----0-0-0--0-0-0--0-0-0--0-0-0-----------------|
Riff 5:
1---------------------------------------|2---------------------------------------|3---------------------------------------|4----9-9--9--9-9----5--8--4--7----------|5----7-7--7--7-7----3--6--2--5----------|6---------------------------------------|
Riff 6: ( Durante el solo )
1----------------------------------------------------------------|2----------------------------------------------------------------|3----------------------------------------------------------------|4-------9---------------------------7----------------------------|5-------7--7-7-7-7-7-7-7-7-7-7-7-7--5--5-5-5-5-5-5-5-5-5-5-5-5---|6----------------------------------------------------------------|
Riff 7: ( Durante el solo )
1-----------------------------------------------------------|2-----------------------------------------------------------|3-----------------------------------------------------------|4---9-9-9-9-9----12--11-9--7----5-5-5-5-5---7-7-7-7-7-7-7---|5---7-7-7-7-7----10--9--7--5----3-3-3-3-3---5-5-5-5-5-5-5---|6-----------------------------------------------------------|
Riff 8:
1------------------------------------------------|2------------------------------------------------|3------------------------------------------------|4------------------------------------------------|5---7-/14-/12-/10-/9-/7------14-/12-/10-/9-9-----|6------------------------------------------------|
1------------------------------------------------|2------------------------------------------------|3------------------------------------------------|4------------------------------------------------|5---/14-/12-/10-/9-/10--------14-/12/-10/-9-/10--|6------------------------------------------------|
1------------------------------------------------|2------------------------------------------------|3------------------------------------------------|4------------------------------------------------|5---/14-/12-/10-/9-/7--------/14-/12-/10-/9-79---|6------------------------------------------------|
1------------------------------------------------|2------------------------------------------------|3------------------------------------------------|4------------------------------------------------|5----/14-/12-/10-/9-/10--------------------------|6------------------------------------------------|
Riff 9:
1-----------------------------------------------------------------|2-----------------------------------------------------------------|3-----------------------------------------------------------------|4----------------3-------------5-------------7-------7-8-9--------|5----------------1-------------3-------------5-------5-6-7--------|6----0-0-0-0-0-0---0-0-0-0-0-0---0-0-0-0-0-0---0-0-0--------------|
Final:
1----------------------------|2----------------------------|3----------------------------|4----------------------------|5-----7--6--5--------2-------|6-----5--4--3--0-1-3-0-------|
Estructura de la canción: - Riff 1: x3 - Riff 2: x4 - Riff 3: x9 - Riff 2: x2 - Riff 3: x9 - Riff 2: x2 - Riff 4: x4 - Riff 5: x8 - Riff 6: x8 } Durante el solo - Riff 7: x4 } Durante el solo - Riff 8: Este es el punteo que hacen todas las guitarras después del solo - Riff 9: x4 - Riff 2: x4 - Final
Tap to rate this tab
 
# A B C D E F G H I J K L M N O P Q R S T U V W X Y Z