Funeral For A Friend - Welcome Home Armageddon tab

FUNERAL FOR A FRIEND - WELCOME HOME ARMAGEDDON
DROP Db TUNING - (Db-Ab-Db-Gb-Bb-Eb)

i'm working through tabbing the album, and this is a great song so i hope
ive done it justice. It's all correct, although it took a while to make
sure it was, the hardest part is the intro/chorus so take time learning
that. Cheers for looking


legend: 

| b       bend 
| r       return 
| /       slide up 
| \       slide down 
| h       hammer on 
| p       pull off 
| *       pinch harmonic 
| ~       sustain
| ...     palm muted 
| x       muted note 
| (n)     optional note 
| tp      tremolo picked
| =       let note ring



>INTRO/CHORUS<


|---------------|-----------|-------------|------------------||-7-7---7-10-7~-|-7-8--7-10-|-5-5-x-x-3/5-|-/10-10-x-x-10-10-||-7---9---------|-7----7----|-6-6-x-x-4/6-|-/11-11-x-x-11-11-||---------------|-----------|-------------|------------------||---------------|-----------|-------------|------------------||---------------|-----------|-------------|------------------|
- the reason this next bit sounds so cool is that he plucks the first note, and then slides between the notes rather than plucking each one in a legato style, so try to play it like its written below and it'll sound like the track.|-----------------------------------||-----------------------------------||-2h4p2h4-/7p6\-2h4h2h4p2h4-/7p6\4--||-----------------------------------||-----------------------------------||-----------------------------------|
>PRE-VERSE<
|-----------------------------------||-----------------------------------||------------------2----------------||-0--0-2/4\2p0-0-0---0-2-0-2/4\2-0~-||--------------------------------0~-||--------------------------------0~-|
>VERSE<
|-------------------------------|-----------------------------||-------------------------------|-----------------------------||-------------------------------|-----------------------------||---------7p4-------------5p4---|---------7-------5p4---------||-0---5-------5-------7-------5-|-0---5-------5-------5---5/7-||-0-0---0-------0-0-0---0-------|-0-0---0---0---0-------0-----|
|-----------------------------------------------||---------------3~=-----------------------------||------------5~=--------------------------------||-5-5-5-5--x-------------------------7----------||-3-3-3-3--x-------------7h9p7-5---------5h7p5--||--------------------0-0---------0-0---0--------|
**THE INTRO IS ALSO THE CHORUS** >BREAKDOWN<
|-----------------------------------||-----------------------------------||-----------------------------------||-4-4-4-------------4-4-------------||-2-2-2-0-0-0-0-0-0-2-2-0-0-0-0-0-0-||-------0-0-0-0-0-0-----0-0-0-0-0-0-|
|-------------------------------||-------------------------------||-------------------------------||-4-4---------------------------||-2-2-0-0-0-0-0-0-7-7-9-7-5-5-5-| x4|-----0-0-0-0-0-0-7-7-9-7-5-5-5-|
- the lead guitar then changes to this:|----------------------------------------------------||----------------------------------------------------||----------------------------------------------------||-4-4-4---4/9~--4-4---4/9~--4-4---4------------------||-------5-----------5-----------5---5~-7-7-9-7-5-5-5-| x4|--------------------------------------7-7-9-7-5-5-5-|
|-----||-----||-4~--||-4~--||-2~--||-----|
>ACOUSTIC VERSE ENDING<
|----0---2-------5--| |----0--------0----||------0-------5----| |------0--------0--||-------------------| |------------------||-----------0~------| |------------------||-2~----------------| x3 |-0~-----0---------||-------------------| |----------5~------|
- the second guitar starts playing these small arpeggios over the top, if you want to play them
|-2-----------5-------||---3-----------3-----||-----4~----------4~--||---------------------||---------------------||---------------------|
THIS IS JUST PLAYED UNTIL THE END, AND THATS IT! CHEERS FOR LOOKING!
Tap to rate this tab
 
# A B C D E F G H I J K L M N O P Q R S T U V W X Y Z