Funeral For A Friend - Old Hymns tab

FUNERAL FOR A FRIEND - OLD HYMNS
DROP Db TUNING - (Db-Ab-Db-Gb-Bb-Eb)

legend: 

| b       bend 
| r       return 
| /       slide up 
| \       slide down 
| h       hammer on 
| p       pull off 
| *       pinch harmonic 
| ~       tremolo 
| ...     palm muted 
| x       muted note 
| (n)     optional note 
| tp      tremolo picked


>INTRO<

|------------||------------||------------||-9----------||-7--9--11~--||----9--11~--|
>VERSE< - even though it looks kind of hard, they're just similar arpeggios in different positions, so if you're struggling get the finger positions right first and work your speed up gradually.
|-12p11-------14p11-------16p11-------14p11-------||-------12----------12----------12----------12----||----------11----------11----------11----------11-||-------------------------------------------------||-------------------------------------------------||-------------------------------------------------|
|-9p7-----11p7-----12p7-----11p7------||-----9--------9--------9--------9----||-------8--------8--------8--------8--||-------------------------------------||-------------------------------------||-------------------------------------|
|---------------------------------------||--------------------10p9---------------||-9p8------11p8-----------11-9--8-9-8---||-----9---------9---------------------9-||-------11--------11--------------------||---------------------------------------|
|------------------------------9-11-----||----------------------9-10-12------12--||---------------8-9-11------------------||---------6-7-9-------------------------||---6-7-9-------------------------------||-9-------------------------------------|
**PLAY THROUGH TWICE** >CHORUS<
|-/12p11-------------|----------------|----------------|-------------||--------12----------|-9h10p9---------|----------------|-------------||-----------11~--9~--|--------9~------|-----9----------|-------------||--------------------|------------9~--|-6h7---6~-/-9~--|-7~-/9~--6~--||--------------------|----------------|----------------|-------------||--------------------|----------------|----------------|-------------|
ON THE LAST TIME THROUGH, THE LAST BAR OF THE CHORUS CHANGES TO THIS:
|--------------------------------------------------||--------------------------------------------------||------------------------/8-8-8-8-...-9-9-9-9-...--||-/7-7-7-7-...9-9-9-9-...--------------------------||--------------------------------------------------||--------------------------------------------------|
>BREAKDOWN/FINAL VERSES<
|-------------------------------------||-12-12-12\7-7-7-9-9-9-9-9-9-9-9-9-9--||-------------------------------------||-------------------------------------||-------------------------------------||-------------------------------------|
|-------------------------------------------------------||-12-12-12----------------------------------------------||----------8-8-8-9-9-9-9-9-9------8-9-8-----------------||----------------------------9-11-------11-9-11-11-11---||-------------------------------------------------------||-------------------------------------------------------|
|-/11-11-11-...-14-------14-------14-------14-------11-------||------------------12-12----12-12----12-12----12-12----12~~\-||------------------------------------------------------------||------------------------------------------------------------||------------------------------------------------------------||------------------------------------------------------------|
THIS PLAYS REPEATED UNTIL THE END OF THE SONG, AND THATS IT. CHEERS FOR LOOKING, AND PLEASE RATE KINDLY!
Tap to rate this tab
 
# A B C D E F G H I J K L M N O P Q R S T U V W X Y Z