Funeral For A Friend - Aftertaste tab version 1

drop b 

Vers:

|-------------------------------------||-------------------------------------||-7-------------5---------------------||-7-------5h7p5-5-2h3p2-2h3p2---------||-5-5-7-8-------3-------------5-5-5-5-||-------------------------------------|
|------------------------------------------------||------------------------------------------------||---------------5--------------------------------||-7-------------5--------3-3-3-3-2-2-2-2---------||-7-------5h7p5-3-1-1-1-1----------------3-3-3-3-||-5-5-7-8----------------------------------------|
Chorus:
|-------------------------------------------||-------------------------------------------||-5-----------------------------------------||-5-2-----------3/5-2h3p2-----3p2-----------||-3-5-3h5p3-1-1-----------3p0-----5p0-3p0-0-||-------------------------------------------|
Bridge 1:
|----------------------------------------------------||----------------------------------------------------||----------------------------------------------------||----------------------------------------------------||-----8--8/10/7~------0-3---5-----8---7-------3------| |-0-0--0--------0-7-0-----0---0-0---0---10-10---5~3~-|
Bridge 2:
|----------------------------||----------------------------||----------------------------||-3-3-3-3-2-2-2-2-0--0--0--0-||-3-3-3-3-3-3-3-3-0--0--0--0-||-3-3-3-3-2-2-2-2-0--0--0--0-|
|-----------------||-----------------||-3-3-3-3---------||-3-3-3-3-3-3-3-3-||-1-1-1-1-3-3-3-3-||---------3-3-3-3-|
|-----------------------------------------||-/13-12----------------------------------||-------14-12---------------12------------||-------------14-(12)-12h14----(12)-12h14-||-----------------------------------------||-----------------------------------------|
|----------------------------||----------------------------||----------------------------||---3-----3---8-8-8-10-10-10-||---3-----3---8-8-8--7--7--7-||-0---0-0---0-8-8-8----------|
Tap to rate this tab
 
# A B C D E F G H I J K L M N O P Q R S T U V W X Y Z