Funeral For A Friend - Juneau tab

I'm pretty sure this is right, I'm setting it up down here so it is one easier for
and easier for any other person to learn guitar one.  Sorry if you dont like it cause theres
guitar two,get over it and find another tab with it. This is also one of my first few 
so cut me a little slack =) good luck.

This is only GUITAR ONE

The tabs should be correct, it might be possible I messed up on how much or long it
be played, but you should be able to figure the most of it out with what is provided.

*******GUITAR ONE*******Intro|---------------------------------------------------------------------------||---------------------------------------------------------------------------||---12-12-12-12-12-12-12-12---12-12-12-12-12-12-12---12-12-12-12-12-12-1212-||---10-10-10-10-10-10-10-10---10-10-10-10-10-10-10---10-10-10-10-10-10-1010-||---8--8--8--8--8--8--8--8----8--8--8--8--8--8--8----8--8--8--8--8--8--8----||---------------------------------------------------------------------------|
|-----------------------------------------------------------------------||-----------------------------------------------------------------------||---12-12-12-12-12-12-12---12-12-12-12-12-12-12---10-10-10-10-10-10-10--||---10-10-10-10-10-10-10---10-10-10-10-10-10-10---10-10-10-10-10-10-10--||---8--8--8--8/-10-10-10---12-12-12-12-12-12-12---12-12-12-12-12-12-12--||-----------------------------------------------------------------------|
|-------------------------------||-------------------------------||---9--9--9--9--9--9--9----12~--||---10-10-10-10-10-10-10---10~--||---12-12-12-12-12-12-12---10~--||-------------------------------|
Verse one|--------------------------------------------------------------||--------------------------------------------------------------||-------5-5-5-5-5-5-5-5--5-5-5-5-5-5-5--5-5-5-5-5-5-5--5-5-5-5-||---10/-3-3-3-3-3-3-3-3--3-3-3-3-3-3-3--3-3-3-3-3-3-3--3-3-3-3-||---10/-3-3-3-3-3-3-3-3--3-3-3-3-3-3-3--3-3-3-3-3-3-3--3-3-3-3-||---10/-3-3-3-3-3-3-3-3--3-3-3-3-3-3-3--3-3-3-3-3-3-3--3-3-3-3-|
|--------------------------------||--------------------------------||--------------------------------||---10-10-10-10-10-10-10-10-9-10-||---7--7--7--7--7--7--7--7--7-7--||---7--7--7--7--7--7--7--7--7-7--|
Chorus|-----------------------------------------------------------||-----------------------------------------------------------||----5-5-5-5-5-5-5-5--5-5-5-5-5-5-5--5-5-5-5-5-5-5--5-5-5-5-||----3-3-3-3-3-3-3-3--3-3-3-3-3-3-3--3-3-3-3-3-3-3--3-3-3-3-||----3-3-3-3-3-3-3-3--3-3-3-3-3-3-3--3-3-3-3-3-3-3--3-3-3-3-||----3-3-3-3-3-3-3-3--3-3-3-3-3-3-3--3-3-3-3-3-3-3--3-3-3-3-|
|--------------------------------||--------------------------------||--------------------------------||---10-10-10-10-10-10-10-10-9-10-||---7--7--7--7--7--7--7--7--7-7--||---7--7--7--7--7--7--7--7--7-7--|
Verse two|-------------------------------------||-------------------------------------||---5-5-5-5-5-5-5-5--5-5-5-5-5-5-5-5--||---3-3-3-3-3-3-3-3--3-3-3-3-3-3-3-3--||---3-3-3-3-3-3-3-3--3-3-3-3-3-3-3-3--||---3-3-3-3-3-3-3-3--3-3-3-3-3-3-3-3--|
|---------------------------------------------||---------------------------------------------||---9-9-9-9-9-9-9-9-10-10-10-10-9-9-9-9--7--5-||---7-7-7-7-7-7-7-7-7--7--7--7--7-7-7-7--5--3-||---7-7-7-7-7-7-7-7-7--7--7--7--7-7-7-7--5--3-||---7-7-7-7-7-7-7-7-7--7--7--7--7-7-7-7--5--3-|
|-------------------------------------------||---5-5-5-----------------------------------||-----------7-7-7--5-5-5--7-7-7-5~----------||-------------------------------------------||-------------------------------------------||-------------------------------------------|
Chorus x2 I think|-----------------------------------------------------------||-----------------------------------------------------------||----5-5-5-5-5-5-5-5--5-5-5-5-5-5-5--5-5-5-5-5-5-5--5-5-5-5-||----3-3-3-3-3-3-3-3--3-3-3-3-3-3-3--3-3-3-3-3-3-3--3-3-3-3-||----3-3-3-3-3-3-3-3--3-3-3-3-3-3-3--3-3-3-3-3-3-3--3-3-3-3-||----3-3-3-3-3-3-3-3--3-3-3-3-3-3-3--3-3-3-3-3-3-3--3-3-3-3-|
|--------------------------------||--------------------------------||--------------------------------||---10-10-10-10-10-10-10-10-9-10-||---7--7--7--7--7--7--7--7--7-7--||---7--7--7--7--7--7--7--7--7-7--|
Interlude (I'm not one hundred percent sure on this part, it was kinda hard to hear, Ia little extra help for this)|-----------------------------------------------------||-----------------------------------------------------||--------12-------12--------------12-------12---------||-----10-------10-------10-----10-------10--------10--||---8--------8--------8------8--------8---------8-----||-----------------------------------------------------|
|--------------------------------------------------------||--------------------------------------------------------||--------12--------12----------------12--------12--------||------9---------9---------9-------9---------9--------9--||---12--------12--------12------12--------12-------12----||--------------------------------------------------------|
|-----------------------------------------------------||-----------------------------------------------------||--------12-------12--------------12-------12---------||-----10-------10-------10-----10-------10--------10--||---8--------8--------8------8--------8---------8-----||-----------------------------------------------------|
|--------------------------------------||--------------------------------------||--------12--------12------------------||------9---------9---------9-------9~--||---12--------12--------12------12-----||--------------------------------------|
Verse two|-------------------------------------||-------------------------------------||---5-5-5-5-5-5-5-5--5-5-5-5-5-5-5-5--||---3-3-3-3-3-3-3-3--3-3-3-3-3-3-3-3--||---3-3-3-3-3-3-3-3--3-3-3-3-3-3-3-3--||---3-3-3-3-3-3-3-3--3-3-3-3-3-3-3-3--|
|---------------------------------------------||---------------------------------------------||---9-9-9-9-9-9-9-9-10-10-10-10-9-9-9-9--7--5-||---7-7-7-7-7-7-7-7-7--7--7--7--7-7-7-7--5--3-||---7-7-7-7-7-7-7-7-7--7--7--7--7-7-7-7--5--3-||---7-7-7-7-7-7-7-7-7--7--7--7--7-7-7-7--5--3-|
|-------------------------------------------||---5-5-5-----------------------------------||-----------7-7-7--5-5-5--7-7-7-5~----------||-------------------------------------------||-------------------------------------------||-------------------------------------------|
Intro|---------------------------------------------------------------------------||---------------------------------------------------------------------------||---12-12-12-12-12-12-12-12---12-12-12-12-12-12-12---12-12-12-12-12-12-1212-||---10-10-10-10-10-10-10-10---10-10-10-10-10-10-10---10-10-10-10-10-10-1010-||---8--8--8--8--8--8--8--8----8--8--8--8--8--8--8----8--8--8--8--8--8--8----||---------------------------------------------------------------------------|
|-----------------------------------------------------------------------||-----------------------------------------------------------------------||---12-12-12-12-12-12-12---12-12-12-12-12-12-12---10-10-10-10-10-10-10--||---10-10-10-10-10-10-10---10-10-10-10-10-10-10---10-10-10-10-10-10-10--||---8--8--8--8/-10-10-10---12-12-12-12-12-12-12---12-12-12-12-12-12-12--||-----------------------------------------------------------------------|
|-------------------------------||-------------------------------||---9--9--9--9--9--9--9----12~--||---10-10-10-10-10-10-10---10~--||---12-12-12-12-12-12-12---10~--||-------------------------------|
*Order* Intro Verse Chorus Verse 2 Chorus Interlude Verse 2 Intro Lyrics Tied to the testing of wills, And my heart, Breaks and spills Left to, The sight of the sky In your arms im defined We're thrown to the wolves in the minds of your enemies (Minds of your enemies) And I'm stone in the eyes, Of your foolishness Well if this is, What im meant for No longer interesting Fall forward, To even the score Just a thought to you Tied to the testing of wills, And my heart, Breaks and spills Left to, The sight of the sky In your arms im defined We're thrown to the wolves in the minds of your enemies (Minds of your enemies) And I'm stone in the eyes, Of your foolishness And I'm nothing more, Than a line in your book. Yet I'm nothing more, Than a line in your book. Yet I'm nothing more, Than a line in your book. Yet I'm nothing more, Than a line in your book~~~~~~~~~~~~~~~~~~~. (in your book~~~~~~~) (in your book~~~~~) Well if this is, What im meant for No longer interesting Fall forward, To even the score Just a thought to you just a thought to you!!!!!!!! just a thought to you!!!!!!!! Yet I'm nothing more, Yet I'm nothing more. Than a line in your book. Yet I'm nothing more Than a line in your book~~~~~.
Tap to rate this tab
 
# A B C D E F G H I J K L M N O P Q R S T U V W X Y Z