Funeral For A Friend - Your Revolution Is A Joke tab

Artist - Funeral For A Friend
Title - Your Revolution Is A Joke
Album - Casually Dressed And Deep In Conversation
Tabber - a_guy_called_richard@hotmail.com

Tuning - Drop D, half a step down - 
C# G# C# F# A# D# (low to high)

Nice acoustic song, one of the best i've ever heard.
This is as complete as i could possibly get it, i've
tried to get the timing correct with each part of the
tab. Enjoy.


Intro/Verse 1:|---------------------------------5--------7-----||----8-------7-----------8-----------8-----------||-------0-------0-----0-----0-----------0--------||------------------------------------------------| \|-7--------7-------7-----------7-----------------| \|------------------------------------------------| \
Repeat 6 times|-2-----------3-----------2p0--------5-----------| /|----0-----------0-------------0-----------3-----| /|-------0-----------0----------------------------| /|------------------------------------------------||-3--------3-----------3----------3--3-----2-----||------------------------------------------------|
Verse 2:|-3-----------5-----------7-----------8----------||----0-----------0-----------0-----------0-------||-------0-----------0-----------0-----------0----||------------------------------------------------||-3--------3-----------3-----------3-----------3-||------------------------------------------------|
|-8p7-----------------7--------------------------||------8--------7-----------7--------7h8---------||---------7--------------------7----------7------||-0----------0-----0-----0--------0--0-------0---||------------------------------------------------||------------------------------------------------|
|-5-----------3-----------2-----------0----------||----0-----------0-----------0-----------0-------||-------0-----------0-----------0-----------0----||------------------------------------------------||-3--------3-----------3-----------3-----------3-||------------------------------------------------|
|-5-----------7-----------8-----------10---------||----0-----------0-----------0-----------0-------||-------0-----------0-----------0-----------0----||-0--------0-----------0-----------0-----------0-||------------------------------------------------||------------------------------------------------|Play 'Verse 2' once
Then play 'Verse 1' 4 times Then play 'Verse 2' once
Outro:|------------------------------------------------||----10-------8--------8-----10-------8--------8-||-------0--------0--------------0--------0-------||------------------------------------------------||-10-------10-------10----10-------10-------10---||------------------------------------------------|
|----------------------10-------8--------7-------||----10-------8----------------------------------||-------0--------0--------0--------0--------0----||------------------------------------------------||-7--------7--------7--------7--------7--------7-||------------------------------------------------|
|-------------------------------------------0---->|----3--------3--3-----3-----3--------3---------->|----0--------0--0h2---2h4---0--------0---------->|------------------------------------------------>|-3--------3--------3-----3--------3------------->|------------------------------------------------>
Play immediatly after<----------------------------------|<---3-*-3-----3--------3--------3--|<0--0-*-0h2---2h4------0--------0--|<----------------------------------|<----------3------3--------3-------|<----------------------------------|Sorry, couldn't tab the timing properly here.Just listen carefully to the song.
Repeat 'Outro' 3 times
Outro 2:|------------------------------------------------||----10-------8--------8-----10-------8--------8-||-------0--------0--------------0--------0-------||------------------------------------------------||-10-------10-------10----10-------10-------10---||------------------------------------------------|
|----------------------10-------8--------7-------||----10-------8----------------------------------||-------0--------0--------0--------0--------0----||------------------------------------------------||-7--------7--------7--------7--------7--------7-||------------------------------------------------|
|----0---------------------------------------0--->|----3--------3-*-3-----3-----3--------3--------->|-------------0-*-0h2---2h4---0--------0--------->|------------------------------------------------>|-3--------3---------3-----3--------3------------>|------------------------------------------------>
<----------------------------------|<---3-*-3-----3--------3-----------|<0--0-*-0h2---2h4------0-----------|<----------------------------------|<----------3------3--------3----2--|<----------------------------------|Play that once
End on:|-3------------||-3------------||-0------------||-0------------||-5------------||-5------------|
Yet another great tab from The Legend
Tap to rate this tab
 
# A B C D E F G H I J K L M N O P Q R S T U V W X Y Z