Gamma Ray - Cosmic Chaos drum

---------------------------------------------------------------------|---------------------------------------------------------------------|---------------------------------------------------------------------|--40--------------------------------------------------------40-40-40-|---------------------------------------------------------------------|--35--------------------35-35-35-35-35-35-35-35-35-35-35-35-35-35-35-|
--------------------------------------------------|--------------------------------------------------|--------------------------------------------------|--40----------------------------40----40-40-------|--------------------------------------------------|--35-35-35-35-35-35-35-35-35-35-35-35-35-35-35-35-|
--------------------------------------------------|--------------------------------------------------|--------------------------------------------------|--40----------------------40-------40----40-40----|--------------------------------------------------|--35-35-35-35-35-35-35-35-35-35-35-35-35-35-35-35-|
--------------------------------------------------|--------------------------------------------------|--------------------------------------48-48-------|--40----40----40-40-------40-40-------------------|--------------------------------------------------|--35-35-35-35-35-35-35-35-35-35-35-35-35-35-35-35-|
--49-------------------------------------------------|-----------------------------------------------------|--------------------------------------50-50----50----|--40----------------------40g40----------------------|-----------------------------------------------------|--35-35-35-35-35-35-35-35----35-35-35-35-35-35-35-35-|
-----------------------------------------------------------------|-----------------------------------------------------------------|--50-50-------48----48-48-------47----47----47----47-47----------|-----------------------------------------------------------------|-----------------------------------------------------------------|--35-35-35-35-35-35-35-35-35-35-35-35-35-35-35-35-35----35-35-35-|
--49----------57----------------------------------|--------------------------------------------------|--------------------------48----50----50-50-------|--40----------40----------------------------------|--------------------------------------------------|--35-35-35-35-35-35-35-35-35-35-35-35-35-35-35-35-|
--------------55----------------55----------55----|--------------------------------------------------|--48----------50----50-50-50----50----50-50-50----|--------------------------------------------------|--------------------------------------------------|--35-35-35-35-35-35-35-35-35-35-35-35-35-35-35-35-|
--55----------------57-------49-------49-------------57-------|--------------------------------------------------------------|--50-------48-48----48-------48-------48-------------47-------|--------------------------------------------------------------|--------------------------------------------------------------|--35-35-35-35-35-35-35-35-35-35-35-35-35-35-35-35-35-35-35-35-|
--57----------------------------------------------|--------------------------------------------------|--------------------48-------48-------------------|--40----------------------------------40----------|--------------------------------------------------|--35-35-35-35-35-35-35-35-35-35-35-35-35-35-35-35-|
-----------------57----57-------------------------|--------------------------------------------------|-----------------------------------50-48----------|--40----40-40-------------40----------------40-40-|--------------------------------------------------|--35-35-35-35-35-35-35-35-35-35-35-35-35-35-35-35-|
--------------------------------------------------------|--------------------------------------------------------|--------48----------------48-48----------47-47----------|-----40-------40-40-------------------------------------|--------------------------------------------------------|--35-35-35-35-35-35-35-35-35----35-35-35-35----35-35-35-|
--49----------------46----------------------------|--------------------------------------------------|-----------50----------------48----48-47----47----|--40----------------------------------------------|--------------------------------------------------|--35-35-35-35-35-35-35-35-35-35-35-35-35-35-35-35-|
--------------------------------------------------|--------------------------------------------------|--47-47-------47-47----------------------50-48----|--------------------------45----40-40-------------|--------------------------------------------------|--35-35-35-35-35-35-35-35-35-35-35-35-35-35-35-35-|
--------------------------------------------------------------------------|--------------------------------------------------------------------------|--48-------50-48----48----48-48-------47-47-------------------------------|--------------------------------------------------45-45-------43-43-------|--------------------------------------------------------------------------|--35-35-35-35-35-35-35-35-35-35-35-35-35-35-35-35-35-35-35-35-35-35-35-35-|
--49----------------------------------------------|--------------------------------------------------|--------------------------------------------------|--40-------40-40----40----40-40-------40----------|--------------------------------------------------|--35-35-35-35-35-35-35-35-35-35-35-35-35-35-35-35-|
--------------------------------------------------|--------------------------------------------------|--------------------------------------------------|-----------------------------40-40-40-40----------|--------------------------------------------------|--35-35-35-35-35-35-35-35-35-35-35-35-35-35-35-35-|
----------------------------------------------------------------------------4 ----------------------------------------------------------------------------- ----------------------------------------------------------------------------- -----------40-(40)-(40)-(40)-(40)-40-40-(40)-(40)-(40)-(40)-40-40-(40)-(40)-- ----------------------------------------------------------------------------- --35-35-35-35-35-------------------------------------------------------------
----49-----------------------------------------------------------|-----------------------------------------------------------------|-----------------------------------------------------------------|--------(40)-40-(40)-(40)-(40)-40-40-(40)-(40)-(40)-(40)-40-(40)-|-----------------------------------------------------------------|----35-------------------------------------35--------------------|
-----------------------------------------------------------------51-|--------------------------------------------------------------------|--------------------------------------------------------------------|--(40)-(40)-40-40-(40)-40-(40)-(40)-40-(40)-(40)-40-(40)-(40)-40----|--------------------------------------------------------------------|-----------------------------------------------------------------35-|
-------------------------------------------------------|-------------------------------------------------------|--------------------------48---------------------------|-----40-(40)-(40)-40-(40)------40-(40)-(40)-40-(40)-40-|-------------------------------------------------------|-------------------------------------------------------|
-------------------49-------------------------------------|----------------------------------------------------------|--50-----50-50--------------------------------------------|-------------------40-(40)-(40)-(40)-(40)-(40)-40-(40)-40-|----------------------------------------------------------|-----35--------35-----------------------------------------|
---------------51-----------------------------------------------------------|----------------------------------------------------------------------------|----------------------------------------------------------------------------|--40-(40)-(40)----(40)-(40)-40-(40)-(40)-40-(40)--40-(40)-(40)-(40)-(40)-40-|----------------------------------------------------------------------------|---------------35-----------------------------------------------------------|
-----------------------------------------51---51---51--------|-------------------------------------------------------------|-------------------------------------------------------------|--40-(40)-(40)-(40)-(40)-40-40-(40)-(40)----------------(40)-|-------------------------------------------------------------|-----------------------------------------35---35---35--------|
--------------------------------------------|--------------------------------------------|--------------------------50---48-----------|--40-(40)-(40)-40-40-(40)-----------47------|--------------------------------------------|-----------------------------------------35-|
--------------------------------------------------------|--------------------------------------------------------|--------------------------------------50-50-50-50-------|--40-40--40-40--40--40-40-40-40-------------------------|--------------------------------------------------------|--------------------------------35-35-------------35-35-|
--------------------------------------------------------------------------|--------------------------------------------------------------------------|--48-48-48-48-------------------------------------------50-50-50-50-------|--------------------47-47-47-47-------40-40-40-40-------------------------|--------------------------------------------------------------------------|--------------35-35-------------35-35-------------35-35-------------35-35-|
--------------------------------------49------------|----------------------------------------------------|--48-48-48-48---------------------------------------|--------------------47-47-47-47-------40------40-40-|----------------------------------------------------|--------------35-35-------------35-35---------------|
--------------------------------------------------|--------------------------------------------------|-----50-50-48-48-47-47-45-------------------------|--40----------------------45-45-45-45-45-45-45-45-|--------------------------------------------------|--------------------------------------------------|
--------------------------------------------------||--------------------------------------------------||--------------------------------------------------||--------------------------------------40g40-------||--43-43-43-43-43-43-43-43-43-43-43-43-------------||--------------------------------------------35----||
Tap to rate this tab
 
# A B C D E F G H I J K L M N O P Q R S T U V W X Y Z