Gamma Ray – Land Of The Free drum tab

 Land Of The Free                                 


                                                                       Gamma Ray
Thomas



|---3---| |---3---| |---3---| |---3---| E E E E E E E E E E E E
C||--------------------------------------------------|C||--45--45--45--45--45--45--38--45--45--45--45--45--|C||--35----------35----------35----------35----------|C||--------------------------------------------------|C||--------------------------------------------------|C||--------------------------------------------------|
|---3---| |---3---| E E E E E E Q Q
--------------------------42----42----|--38--45--45--45--45--45--------------|--35----------35----------35----35----|--------------------------------------|--------------------------------------|--------------------------------------|
|---3---| |---3---| |---3---| |---3---| E E E E E E E E E E E E
--------------------------------------------------|--45--45--45--45--45--45--38--45--45--45--45--45--|--35----------35----------35----------35----------|--------------------------------------------------|--------------------------------------------------|--------------------------------------------------|
|---3---| |---3---| E E E E E E Q Q
--------------------------42----42----|--38--45--45--45--45--45--------------|--35----------35----------35----35----|--------------------------------------|--------------------------------------|--------------------------------------|
|---3---| |---3---| |---3---| |---3---| E E E E E E E E E E E E
--------------------------------------------------|--45--45--45--45--45--45--38--45--45--45--45--45--|--35----------35----------35----------35----------|--------------------------------------------------|--------------------------------------------------|--------------------------------------------------|
|---3---| |---3---| E E E E E E Q Q
--------------------------42----42----|--38--45--45--45--45--45--------------|--35----------35----------35----35----|--------------------------------------|--------------------------------------|--------------------------------------|
|---3---| |---3---| |---3---| |---3---| E E E E E E E E E E E E
--------------------------------------------------|--45--45--45--45--45--45--38--45--45--45--45--45--|--35----------35----------35----------35----------|--------------------------------------------------|--------------------------------------------------|--------------------------------------------------|
|---3---| |---3---| E E E E E E H Q Q
--------------------------46--------|--L----42----|--45--45--45--43--43--43------------|-------38----|--35----------35----------35--------|-------------|------------------------------------|-------------|------------------------------------|-------------|------------------------------------|-------------|
|---3---| |---3---| |---3---| |---3---| E E E E E E E E E E E E
|---42----------54----------54----------54----------||---------------38----------------------38----------||*--35--35--35--35--35--35--35--35--35--35--35--35--||*--------------------------------------------------||---------------------------------------------------||---------------------------------------------------|
|---3---| |---3---| |---3---| |---3---| E E E E E E E E E E E E
--54----------54----------42----------42----------|--------------38----------------------38----------|--35--35--35--35--35--35--35--35--35--35--35--35--|--------------------------------------------------|--------------------------------------------------|--------------------------------------------------|
|---3---| |---3---| |---3---| |---3---| E E E E E E E E E E E E
--42----------54----------54----------54----------|--------------38----------------------38----------|--35--35--35--35--35--35--35--35--35--35--35--35--|--------------------------------------------------|--------------------------------------------------|--------------------------------------------------|
|---3---| |---3---| |---3---| |---3---| E E E E E E E E E E E E
--54----------54----------42----------42-----------||--------------38----------------------38-----------||--35--35--35--35--35--35--35--35--35--35--35--35--*||--------------------------------------------------*||---------------------------------------------------||---------------------------------------------------||
|---3---| |---3---| |---3---| |---3---| E E E E E E E E E E E E
--42----------------------42----------------------|----------38--38--38--38----------38--38--38--38--|--35--35--35--35--35--35--35--35--35--35--35--35--|--------------------------------------------------|--------------------------------------------------|--------------------------------------------------|
|---3---| |---3---| |-----3-----| E E E E E E Q Q Q
--42----------------------42----42----42----|----------38--38--38--38--------------------|--35--35--35--35--35--35--35----35----35----|--------------------------------------------|--------------------------------------------|--------------------------------------------|
|---3---| |---3---| |---3---| |---3---| E E E E E E E E E E E E
--42----------54----------54----------54----------|--------------------------38----------------------|--35--35--35--35--35--35--35--35--35--35--35--35--|--------------------------------------------------|--------------------------------------------------|--------------------------------------------------|
|---3---| |---3---| |---3---| |---3---| E E E E E E E E E E E E
--54----------54----------42----------42----------|--------------------------38----------38----------|--35--35--35--35--35--35--35--35--35--35--35--35--|--------------------------------------------------|--------------------------------------------------|--------------------------------------------------|
|---3---| |---3---| |---3---| |---3---| E E E E E E E E E E E E
--54----------54----------54----------54----------|--------------------------38----------------------|--35--35--35--35--35--35--35--35--35--35--35--35--|--------------------------------------------------|--------------------------------------------------|--------------------------------------------------|
|---3---| |---3---| |---3---| |---3---| E E E E E E E E E E E E W
--54----------54----------42----------42----------|-------------------|--------------------------38----------38----------|-------------------|--35--35--35--35--35--35--35--35--35--35--35--35--|-------------------|--------------------------------------------------|-------------------|--------------------------------------------------|-------------------|--------------------------------------------------|-------------------|
W W W W -------------------|-------------------|-------------------|-------------------|-------------------|-------------------|-------------------|-------------------|-------------------|-------------------|-------------------|-------------------|-------------------|-------------------|-------------------|-------------------|-------------------|-------------------|-------------------|-------------------|-------------------|-------------------|-------------------|-------------------|
W W W -------------------|-------------------|-------------------|-------------------|-------------------|-------------------|-------------------|-------------------|-------------------|-------------------|-------------------|-------------------|-------------------|-------------------|-------------------|-------------------|-------------------|-------------------|
|---3---| |---3---| |---3---| |---3---| E E E E E E E E E E E E
--42----------42----------42----------42----------|--------------38----------------------38----------|--35--35--35--35--35--35--35--35--35--35--35--35--|--------------------------------------------------|--------------------------------------------------|--------------------------------------------------|
|---3---| |---3---| |---3---| |---3---| E E E E E E E E E E E E Q Q H
--42----------42----------42----------42----------|--46------------------|--------------38----------38----------38----------|----------------------|--35--35--35--35--35--35--35--35--35--35--35--35--|--35------------------|--------------------------------------------------|----------------------|--------------------------------------------------|----------------------|--------------------------------------------------|----------------------|
W W W W -------------------|-------------------|-------------------|-------------------|-------------------|-------------------|-------------------|-------------------|-------------------|-------------------|-------------------|-------------------|-------------------|-------------------|-------------------|-------------------|-------------------|-------------------|-------------------|-------------------|-------------------|-------------------|-------------------|-------------------|
W W W W -------------------|-------------------|-------------------|-------------------|-------------------|-------------------|-------------------|-------------------|-------------------|-------------------|-------------------|-------------------|-------------------|-------------------|-------------------|-------------------|-------------------|-------------------|-------------------|-------------------|-------------------|-------------------|-------------------|-------------------|
|---3---| |---3---| |---3---| |---3---| W E E E E E E E E E E E E
-------------------|--42----------54----------54----------54----------|-------------------|--------------38----------------------38----------|-------------------|--35--35--35--35--35--35--35--35--35--35--35--35--|-------------------|--------------------------------------------------|-------------------|--------------------------------------------------|-------------------|--------------------------------------------------|
|---3---| |---3---| |---3---| |---3---| E E E E E E E E E E E E
--42----------42----------42----------42----------|--------------38----------------------38----------|--35--35--35--35--35--35--35--35--35--35--35--35--|--------------------------------------------------|--------------------------------------------------|--------------------------------------------------|
|---3---| |---3---| |---3---| |---3---| E E E E E E E E E E E E
--42----------------------------------------------|----------------------38--38------47------47--38--|--35--35--35--35--35--35--35--35--35--35--35--35--|--------------------------------------------------|--------------------------------------------------|--------------------------------------------------|
|---3---| |---3---| |---3---| |---3---| E E E E E E E E E E E E
--------------------------------------------------|--38--38--38--38--38--38--38--38--38--38--38--38--|--35--35--35--35--35--35--35--35--35--35--35--35--|--------------------------------------------------|--------------------------------------------------|--------------------------------------------------|
|---3---| |---3---| |---3---| |---3---| E E E E E E E E E E E E
--42----------54----------54----------54----------|--------------38----------------------38----------|--35--35--35--35--35--35--35--35--35--35--35--35--|--------------------------------------------------|--------------------------------------------------|--------------------------------------------------|
|---3---| |---3---| |---3---| |---3---| E E E E E E E E E E E E
--54----------54----------54----------54----------|--------------38----------------------38----------|--35--35--35--35--35--35--35--35--35--35--35--35--|--------------------------------------------------|--------------------------------------------------|--------------------------------------------------|
|---3---| |---3---| |---3---| |---3---| E E E E E E E E E E E E
--54----------54----------54----------54----------|--------------38----------------------38----------|--35--35--35--35--35--35--35--35--35--35--35--35--|--------------------------------------------------|--------------------------------------------------|--------------------------------------------------|
|---3---| |---3---| |---3---| |---3---| E E E E E E E E E E E E
--54----------54----------54----------54----------|--------------38----------------------38----------|--35--35--35--35--35--35--35--35--35--35--35--35--|--------------------------------------------------|--------------------------------------------------|--------------------------------------------------|
|---3---| |---3---| |---3---| |---3---| E E E E E E E E E E E E
--42----------54----------54----------54----------|--------------38----------------------38----------|--35--35--35--35--35--35--35--35--35--35--35--35--|--------------------------------------------------|--------------------------------------------------|--------------------------------------------------|
|---3---| |---3---| |---3---| |---3---| E E E E E E E E E E E E
--54----------54----------54----------54----------|--------------38----------------------38----------|--35--35--35--35--35--35--35--35--35--35--35--35--|--------------------------------------------------|--------------------------------------------------|--------------------------------------------------|
|---3---| |---3---| |---3---| |---3---| E E E E E E E E E E E E
--42----------54----------54----------54----------|--------------38----------------------38----------|--35--35--35--35--35--35--35--35--35--35--35--35--|--------------------------------------------------|--------------------------------------------------|--------------------------------------------------|
|---3---| |---3---| |---3---| |---3---| E E E E E E E E E E E E
--------------------------------------------------|--45--45--45--38--38--38--47--38--38--47--47--38--|--35--35--35--35--35--35--35--35--35--35--35--35--|--------------------------------------------------|--------------------------------------------------|--------------------------------------------------|
|---3---| |---3---| |---3---| |---3---| E E E E E E E E E E E E
|---42----------42----------42----------42----------||---------------38----------------------38----------||*--35--35--35--35--35--35--35--35--35--35--35--35--||*--------------------------------------------------||---------------------------------------------------||---------------------------------------------------|
|---3---| |---3---| |---3---| |---3---| E E E E E E E E E E E E
--42----------42----------42----------42------42--|--------------38----------------------38----------|--35--35--35--35--35--35--35--35--35--35--35--35--|--------------------------------------------------|--------------------------------------------------|--------------------------------------------------|
|---3---| |---3---| |---3---| |---3---| E E E E E E E E E E E E
--42----------42----------42----------42----------|--------------38----------------------38----------|--35--35--35--35--35--35--35--35--35--35--35--35--|--------------------------------------------------|--------------------------------------------------|--------------------------------------------------|
|---3---| |---3---| |---3---| |---3---| E E E E E E E E E E E E
--42----------42----------42------42--42--42------|--------------38----------------------38----------|--35--35--35--35--35--35--35--35--35--35--35--35--|--------------------------------------------------|--------------------------------------------------|--------------------------------------------------|
|---3---| |---3---| |---3---| |---3---| E E E E E E E E E E E E
--42----------42----------42----------42----------|--------------38----------------------38----------|--35--35--35--35--35--35--35--35--35--35--35--35--|--------------------------------------------------|--------------------------------------------------|--------------------------------------------------|
|---3---| |---3---| |---3---| |---3---| E E E E E E E E E E E E
--42----------42----------42----------42----------|--------------38----------------------38----------|--35--35--35--35--35--35--35--35--35--35--35--35--|--------------------------------------------------|--------------------------------------------------|--------------------------------------------------|
|---3---| |---3---| |---3---| |---3---| E E E E E E E E E E E E
--42----------42----------42----------42----------|--------------38----------------------38----------|--35--35--35--35--35--35--35--35--35--35--35--35--|--------------------------------------------------|--------------------------------------------------|--------------------------------------------------|
|---3---| |---3---| |---3---| |---3---| E E E E E E E E E E E E
--42--42--42--42----------42--42--42---------------||--------------38----------------------38--38--38---||--35--35--35--35--35--35--35--35--35--35--35--35--*||--------------------------------------------------*||---------------------------------------------------||---------------------------------------------------||
|---3---| |---3---| |---3---| |---3---| E E E E E E E E E E E E
--42----------42----------42----------42----------|--------------38----------------------38----------|--35--35--35--35--35--35--35--35--35--35--35--35--|--------------------------------------------------|--------------------------------------------------|--------------------------------------------------|
|---3---| |---3---| |---3---| |---3---| E E E E E E E E E E E E
--42----------42----------42----------42----------|--------------38----------------------38----------|--35--35--35--35--35--35--35--35--35--35--35--35--|--------------------------------------------------|--------------------------------------------------|--------------------------------------------------|
|---3---| |---3---| |---3---| |---3---| E E E E E E E E E E E E
--42----------42----------42------42--42--42------|--------------38----------------------38----------|--35--35--35--35--35--35--35--35--35--35--35--35--|--------------------------------------------------|--------------------------------------------------|--------------------------------------------------|
|---3---| |---3---| |---3---| |---3---| E E E E E E E E E E E E
--42------42--42--42------------------------------|--------------38----------47--47--38--38--38--38--|--35--35--35--35--35--35--35--35--35--35--35--35--|--------------------------------------------------|--------------------------------------------------|--------------------------------------------------|
|---3---| |---3---| |---3---| |---3---| E E E E E E E E E E E E
|---42----------54----------54----------54----------||---------------38----------------------38----------||*--35--35--35--35--35--35--35--35--35--35--35--35--||*--------------------------------------------------||---------------------------------------------------||---------------------------------------------------|
|---3---| |---3---| |---3---| |---3---| E E E E E E E E E E E E
--54----------54----------54----------54----------|--------------38----------------------38----------|--35--35--35--35--35--35--35--35--35--35--35--35--|--------------------------------------------------|--------------------------------------------------|--------------------------------------------------|
|---3---| |---3---| |---3---| |---3---| E E E E E E E E E E E E
--54----------54----------54----------54----------|--------------38----------------------38----------|--35--35--35--35--35--35--35--35--35--35--35--35--|--------------------------------------------------|--------------------------------------------------|--------------------------------------------------|
|---3---| |---3---| |---3---| |---3---| E E E E E E E E E E E E
--42----------54----------42----------54-----------||--------------38----------------------38-----------||--35--35--35--35--35--35--35--35--35--35--35--35--*||--------------------------------------------------*||---------------------------------------------------||---------------------------------------------------||
|---3---| |---3---| |---3---| |---3---| E E E E E E E E E E E E
--54----------54----------54----------54----------|--------------38----------------------38----------|--35--35--35--35--35--35--35--35--35--35--35--35--|--------------------------------------------------|--------------------------------------------------|--------------------------------------------------|
|---3---| |---3---| |---3---| |---3---| E E E E E E E E E E E E
--42----------54----------54----------54----------|--------------38----------------------38----------|--35--35--35--35--35--35--35--35--35--35--35--35--|--------------------------------------------------|--------------------------------------------------|--------------------------------------------------|
|---3---| |---3---| |---3---| |---3---| E E E E E E E E E E E E
--42----------------------42----------------------|----------38--38--38--38----------38--38--38--38--|--35--35--35--35--35--35--35--35--35--35--35--35--|--------------------------------------------------|--------------------------------------------------|--------------------------------------------------|
|---3---| |---3---| E E E E E E Q Q
--42----------------------42----42----|----------38--38--38--38--------------|--35--35--35--35--35--35--35----35----|--------------------------------------|--------------------------------------|--------------------------------------|
|--3--| |---3---| |--3--| |---3---| Q E E E E Q E E E E
--42--------54----------42--------42----------|------------38--------------------38----------|--35----35------35--35--35----35------35--35--|----------------------------------------------|----------------------------------------------|----------------------------------------------|
|--3--| |---3---| |--3--| |---3---| Q E E E E Q E E E E
--42--------54----------42--------42----------|------------38--------------------38----------|--35----35------35--35--35----35------35--35--|----------------------------------------------|----------------------------------------------|----------------------------------------------|
|--3--| |---3---| |--3--| |---3---| Q E E E E Q E E E E
--42--------54----------42--------42----------|------------38--------------------38----------|--35----35------35--35--35----35------35--35--|----------------------------------------------|----------------------------------------------|----------------------------------------------|
|--3--| |---3---| |--3--| |---3---| Q E E E E Q E E E E
--42--------54----------42--------42----------|------------38--------------------38----------|--35----35------35--35--35----35------35--35--|----------------------------------------------|----------------------------------------------|----------------------------------------------|
|--3--| |---3---| |--3--| |---3---| Q E E E E Q E E E E
--42--------54----------42--------42----------|------------38--------------------38----------|--35----35------35--35--35----35------35--35--|----------------------------------------------|----------------------------------------------|----------------------------------------------|
|--3--| |---3---| |--3--| |---3---| Q E E E E Q E E E E
--42--------54----------42--------42----------|------------38--------------------38----------|--35----35------35--35--35----35------35--35--|----------------------------------------------|----------------------------------------------|----------------------------------------------|
|--3--| |---3---| |--3--| |--3--| Q E E E E Q E Q E
--42--------42----------42--------54--------|------------38--------------------38----38--|--35----35------35--35--35----35------------|--------------------------------------------|--------------------------------------------|--------------------------------------------|
|---3---| |---3---| |---3---| |---3---| E E E E E E E E E E E E
--------------------------------------------------|--45--38--38--38--38--38--38--38--38--38--38--38--|--------------------------------------------------|--------------------------------------------------|--------------------------------------------------|--------------------------------------------------|
|---3---| |---3---| |---3---| |---3---| E E E E E E E E E E E E
--42----------54----------54----------54----------|--------------38----------------------38----------|--35--35--35--35--35--35--35--35--35--35--35--35--|--------------------------------------------------|--------------------------------------------------|--------------------------------------------------|
|---3---| |---3---| |---3---| |---3---| E E E E E E E E E E E E
--54----------54----------54----------54----------|--------------38----------------------38----------|--35--35--35--35--35--35--35--35--35--35--35--35--|--------------------------------------------------|--------------------------------------------------|--------------------------------------------------|
|---3---| |---3---| |---3---| |---3---| E E E E E E E E E E E E
--54----------54----------54----------54----------|--------------38----------------------38----------|--35--35--35--35--35--35--35--35--35--35--35--35--|--------------------------------------------------|--------------------------------------------------|--------------------------------------------------|
|---3---| |---3---| |---3---| |---3---| E E E E E E E E E E E E
--54----------54----------54----------54----------|--------------38----------------------38----------|--35--35--35--35--35--35--35--35--35--35--35--35--|--------------------------------------------------|--------------------------------------------------|--------------------------------------------------|
|---3---| |---3---| |---3---| |---3---| E E E E E E E E E E E E
--42----------54----------54----------54----------|--------------38----------------------38----------|--35--35--35--35--35--35--35--35--35--35--35--35--|--------------------------------------------------|--------------------------------------------------|--------------------------------------------------|
|---3---| |---3---| |---3---| |---3---| E E E E E E E E E E E E
--54----------54----------54----------54----------|--------------38----------------------38----------|--35--35--35--35--35--35--35--35--35--35--35--35--|--------------------------------------------------|--------------------------------------------------|--------------------------------------------------|
|---3---| |---3---| |---3---| |---3---| E E E E E E E E E E E E
--42----------54----------42----------------------|--------------38------------------38--38--38--38--|--35--35--35--35--35--35--35--35--35--35--35--35--|--------------------------------------------------|--------------------------------------------------|--------------------------------------------------|
|---3---| |---3---| |---3---| |---3---| E E E E E E E E E E E E
--42----------------------------------------------|------38--38--38--38--38--38--47--38--38--47--38--|--35--35--35--35--35--35--35--35--35--35--35--35--|--------------------------------------------------|--------------------------------------------------|--------------------------------------------------|
|---3---| |---3---| |---3---| |---3---| E E E E E E E E E E E E
|---42----------42----------42----------42----------||---------------38----------------------38----------||*--35--35--35--35--35--35--35--35--35--35--35--35--||*--------------------------------------------------||---------------------------------------------------||---------------------------------------------------|
|---3---| |---3---| |---3---| |---3---| E E E E E E E E E E E E
--42----------42----------42----------42------42--|--------------38----------------------38----------|--35--35--35--35--35--35--35--35--35--35--35--35--|--------------------------------------------------|--------------------------------------------------|--------------------------------------------------|
|---3---| |---3---| |---3---| |---3---| E E E E E E E E E E E E
--42----------42----------42----------42----------|--------------38----------------------38----------|--35--35--35--35--35--35--35--35--35--35--35--35--|--------------------------------------------------|--------------------------------------------------|--------------------------------------------------|
|---3---| |---3---| |---3---| |---3---| E E E E E E E E E E E E
--42----------42----------42------42--42--42------|--------------38----------------------38----------|--35--35--35--35--35--35--35--35--35--35--35--35--|--------------------------------------------------|--------------------------------------------------|--------------------------------------------------|
|---3---| |---3---| |---3---| |---3---| E E E E E E E E E E E E
--42----------42----------42----------42----------|--------------38----------------------38----------|--35--35--35--35--35--35--35--35--35--35--35--35--|--------------------------------------------------|--------------------------------------------------|--------------------------------------------------|
|---3---| |---3---| |---3---| |---3---| E E E E E E E E E E E E
--42----------42----------42----------42----------|--------------38----------------------38----------|--35--35--35--35--35--35--35--35--35--35--35--35--|--------------------------------------------------|--------------------------------------------------|--------------------------------------------------|
|---3---| |---3---| |---3---| |---3---| E E E E E E E E E E E E
--42----------42----------42----------42----------|--------------38----------------------38----------|--35--35--35--35--35--35--35--35--35--35--35--35--|--------------------------------------------------|--------------------------------------------------|--------------------------------------------------|
|---3---| |---3---| |---3---| |---3---| E E E E E E E E E E E E
--42--42--42--42----------42--42--42---------------||--------------38----------------------38--38--38---||--35--35--35--35--35--35--35--35--35--35--35--35--*||--------------------------------------------------*||---------------------------------------------------||---------------------------------------------------||
|---3---| |---3---| |---3---| |---3---| E E E E E E E E E E E E
--42----------42----------42----------42----------|--------------38----------------------38----------|--35--35--35--35--35--35--35--35--35--35--35--35--|--------------------------------------------------|--------------------------------------------------|--------------------------------------------------|
|---3---| |---3---| |---3---| |---3---| E E E E E E E E E E E E
--42----------42----------42----------42----------|--------------38----------------------38----------|--35--35--35--35--35--35--35--35--35--35--35--35--|--------------------------------------------------|--------------------------------------------------|--------------------------------------------------|
|---3---| |---3---| |---3---| |---3---| E E E E E E E E E E E E
--42----------42----------42------42--42--42------|--------------38----------------------38----------|--35--35--35--35--35--35--35--35--35--35--35--35--|--------------------------------------------------|--------------------------------------------------|--------------------------------------------------|
|---3---| |---3---| |---3---| |---3---| E E E E E E E E E E E E
--42------42--------------42----------------------|--38----------38------38----------38--38--38--38--|--35--35--35--35--35--35--35--35--35--35--35--35--|--------------------------------------------------|--------------------------------------------------|--------------------------------------------------|
|---3---| |---3---| |---3---| |---3---| E E E E E E E E E E E E
--42----------54----------54----------54----------|--------------38----------------------38----------|--35--35--35--35--35--35--35--35--35--35--35--35--|--------------------------------------------------|--------------------------------------------------|--------------------------------------------------|
|---3---| |---3---| |---3---| |---3---| E E E E E E E E E E E E
--54----------54----------54----------54----------|--------------38----------------------38----------|--35--35--35--35--35--35--35--35--35--35--35--35--|--------------------------------------------------|--------------------------------------------------|--------------------------------------------------|
|---3---| |---3---| |---3---| |---3---| E E E E E E E E E E E E
--54----------54----------54----------54----------|--------------38----------------------38----------|--35--35--35--35--35--35--35--35--35--35--35--35--|--------------------------------------------------|--------------------------------------------------|--------------------------------------------------|
|---3---| |---3---| |---3---| |---3---| E E E E E E E E E E E E
--54----------54----------42----------54----------|--------------38----------------------38----------|--35--35--35--35--35--35--35--35--35--35--35--35--|--------------------------------------------------|--------------------------------------------------|--------------------------------------------------|
|---3---| |---3---| |---3---| |---3---| E E E E E E E E E E E E
--42----------54----------54----------54----------|--------------38----------------------38----------|--35--35--35--35--35--35--35--35--35--35--35--35--|--------------------------------------------------|--------------------------------------------------|--------------------------------------------------|
|---3---| |---3---| |---3---| |---3---| E E E E E E E E E E E E
--54----------54----------54----------54----------|--------------38----------------------38----------|--35--35--35--35--35--35--35--35--35--35--35--35--|--------------------------------------------------|--------------------------------------------------|--------------------------------------------------|
|---3---| |---3---| |---3---| |---3---| E E E E E E E E E E E E
--54----------54----------54----------54----------|--------------38----------------------38----------|--35--35--35--35--35--35--35--35--35--35--35--35--|--------------------------------------------------|--------------------------------------------------|--------------------------------------------------|
|---3---| |---3---| |---3---| |---3---| E E E E E E E E E E E E
--54----------54----------42----------------------|--------------38----------38------38--38--38--38--|--35--35--35--35--35--35--35--35--35--35--35--35--|--------------------------------------------------|--------------------------------------------------|--------------------------------------------------|
|---3---| |---3---| |---3---| |---3---| E E E E E E E E E E E E
--42----------54----------54----------54----------|--------------38----------------------38----------|--35--35--35--35--35--35--35--35--35--35--35--35--|--------------------------------------------------|--------------------------------------------------|--------------------------------------------------|
|---3---| |---3---| |---3---| |---3---| E E E E E E E E E E E E
--54----------54----------54----------54----------|--------------38----------------------38----------|--35--35--35--35--35--35--35--35--35--35--35--35--|--------------------------------------------------|--------------------------------------------------|--------------------------------------------------|
|---3---| |---3---| |---3---| |---3---| E E E E E E E E E E E E
--54----------54----------54----------54----------|--------------38----------------------38----------|--35--35--35--35--35--35--35--35--35--35--35--35--|--------------------------------------------------|--------------------------------------------------|--------------------------------------------------|
|---3---| |---3---| |--3--| |---3---| E E E E E E Q E E E E
--54----------54----------42----42--------------|--------------38--------------------38--38--38--|--35--35--35--35--35--35--35----35--------------|------------------------------------------------|------------------------------------------------|------------------------------------------------|
|---3---| |---3---| |---3---| |---3---| E E E E E E E E E E E E
--42----------54----------54----------54----------|--------------38----------------------38----------|--35--35--35--35--35--35--35--35--35--35--35--35--|--------------------------------------------------|--------------------------------------------------|--------------------------------------------------|
|---3---| |---3---| |---3---| |---3---| E E E E E E E E E E E E
--54----------54----------54----------54----------|--------------38----------------------38----------|--35--35--35--35--35--35--35--35--35--35--35--35--|--------------------------------------------------|--------------------------------------------------|--------------------------------------------------|
|---3---| |---3---| |---3---| |---3---| E E E E E E E E E E E E
--54----------54----------54----------54----------|--------------38----------------------38----------|--35--35--35--35--35--35--35--35--35--35--35--35--|--------------------------------------------------|--------------------------------------------------|--------------------------------------------------|
|---3---| |---3---| |---3---| |---3---| E E E E E E E E E E E E
--------------------------------------------------|--47--47--47--45--45--38--38--47--47--45--45--38--|--35--35--35--35--35--35--35--35--35--35--35--35--|--------------------------------------------------|--------------------------------------------------|--------------------------------------------------|
|---3---| |---3---| |---3---| |---3---| E E E E E E E E E E E E
--42----------42----------42----------42----------|--------------38----------------------38----------|--35--35--35--35--35--35--35--35--35--35--35--35--|--------------------------------------------------|--------------------------------------------------|--------------------------------------------------|
|---3---| |---3---| |---3---| |---3---| E E E E E E E E E E E E
--42----------42----------42----------42----------|--------------38----------------------38----------|--35--35--35--35--35--35--35--35--35--35--35--35--|--------------------------------------------------|--------------------------------------------------|--------------------------------------------------|
|---3---| |---3---| |---3---| |---3---| E E E E E E E E E E E E
--42----------42----------42----------42----------|--------------38----------------------38----------|--35--35--35--35--35--35--35--35--35--35--35--35--|--------------------------------------------------|--------------------------------------------------|--------------------------------------------------|
|---3---| |---3---| |---3---| |---3---| E E E E E E E E E E E E
--42----------42----------42----------42----------|--------------38----------------------38----------|--35--35--35--35--35--35--35--35--35--35--35--35--|--------------------------------------------------|--------------------------------------------------|--------------------------------------------------|
|---3---| |---3---| |---3---| |---3---| E E E E E E E E E E E E
--42----------42----------42----------42----------|--------------38----------------------38----------|--35--35--35--35--35--35--35--35--35--35--35--35--|--------------------------------------------------|--------------------------------------------------|--------------------------------------------------|
|---3---| |---3---| |---3---| |---3---| E E E E E E E E E E E E
--42----------42----------42----------------------|--38----------38------------------38--38--38--38--|--35--35--35--35--35--35--35--35--35--35--35--35--|--------------------------------------------------|--------------------------------------------------|--------------------------------------------------|
|---3---| |---3---| |---3---| |---3---| E E E E E E E E E E E E
--42----------54----------54----------54----------|--------------38----------------------38----------|--35--35--35--35--35--35--35--35--35--35--35--35--|--------------------------------------------------|--------------------------------------------------|--------------------------------------------------|
|---3---| |---3---| |---3---| |---3---| E E E E E E E E E E E E
--54----------54----------54----------54----------|--------------38----------------------38----------|--35--35--35--35--35--35--35--35--35--35--35--35--|--------------------------------------------------|--------------------------------------------------|--------------------------------------------------|
|---3---| |---3---| |---3---| |---3---| E E E E E E E E E E E E
--42----------54----------54----------54----------|--------------38----------------------38----------|--35--35--35--35--35--35--35--35--35--35--35--35--|--------------------------------------------------|--------------------------------------------------|--------------------------------------------------|
|---3---| |---3---| |---3---| |---3---| E E E E E E E E E E E E
--------------------------42----------42----------|--38--38--38--38--38--38--------------38----------|--35--35--35--35--35--35--35--35--35--35--35--35--|--------------------------------------------------|--------------------------------------------------|--------------------------------------------------|
|---3---| |---3---| |---3---| |---3---| E E E E E E E E E E E E
--42----------54----------54----------54----------|--------------38----------------------38----------|--35--35--35--35--35--35--35--35--35--35--35--35--|--------------------------------------------------|--------------------------------------------------|--------------------------------------------------|
|---3---| |---3---| |---3---| |---3---| E E E E E E E E E E E E
--54----------54----------54----------54----------|--------------38----------------------38----------|--35--35--35--35--35--35--35--35--35--35--35--35--|--------------------------------------------------|--------------------------------------------------|--------------------------------------------------|
|---3---| |---3---| |---3---| |---3---| E E E E E E E E E E E E
--42----------54----------54----------54----------|--------------38----------------------38----------|--35--35--35--35--35--35--35--35--35--35--35--35--|--------------------------------------------------|--------------------------------------------------|--------------------------------------------------|
|---3---| |---3---| |---3---| |---3---| E E E E E E E E E E E E
--------------------------42----------42----------|--38--38--38--38--38--38--------------38----------|--35--35--35--35--35--35--35--35--35--35--35--35--|--------------------------------------------------|--------------------------------------------------|--------------------------------------------------|
|---3---| |---3---| |---3---| |---3---| E E E E E E E E E E E E
--42----------54----------54----------54----------|--38----------------------38----------------------|--35--35--35--35--35--35--35--35--35--35--35--35--|--------------------------------------------------|--------------------------------------------------|--------------------------------------------------|
|---3---| |---3---| |---3---| |---3---| E E E E E E E E E E E E
--42----------54----------54----------54----------|--38----------------------38----------------------|--35--35--35--35--35--35--35--35--35--35--35--35--|--------------------------------------------------|--------------------------------------------------|--------------------------------------------------|
|---3---| |---3---| |---3---| |---3---| E E E E E E E E E E E E
--42----------54----------54----------54----------|--38----------------------38----------------------|--35--35--35--35--35--35--35--35--35--35--35--35--|--------------------------------------------------|--------------------------------------------------|--------------------------------------------------|
|---3---| |---3---| |---3---| |---3---| E E E E E E E E E E E E
--42----------54----------42----------42----------|--38----------------------38----------38----------|--35--35--35--35--35--35--35--35--35--35--35--35--|--------------------------------------------------|--------------------------------------------------|--------------------------------------------------|
|---3---| |---3---| |---3---| |---3---| E E E E E E E E E E E E
--42----------54----------54----------54----------|--38----------------------38----------------------|--35--35--35--35--35--35--35--35--35--35--35--35--|--------------------------------------------------|--------------------------------------------------|--------------------------------------------------|
|---3---| |---3---| |---3---| |---3---| E E E E E E E E E E E E
--42----------54----------54----------54----------|--38----------------------38----------------------|--35--35--35--35--35--35--35--35--35--35--35--35--|--------------------------------------------------|--------------------------------------------------|--------------------------------------------------|
|---3---| |---3---| |---3---| |---3---| E E E E E E E E E E E E
--42----------54----------54----------54----------|--38----------------------38----------------------|--35--35--35--35--35--35--35--35--35--35--35--35--|--------------------------------------------------|--------------------------------------------------|--------------------------------------------------|
|---3---| |---3---| |---3---| |---3---| E E E E E E E E E E E E
--42----------54----------42----------------------|--38----------------------38------38--38--38--38--|--35--35--35--35--35--35--35--35--35--35--35--35--|--------------------------------------------------|--------------------------------------------------|--------------------------------------------------|
|---3---| |---3---| |---3---| |---3---| E E E E E E E E E E E E
|---42----------54----------54----------42----------||---------------38----------------------38----------||*--35--35--35--35--35--35--35--35--35--35--35--35--||*--------------------------------------------------||---------------------------------------------------||---------------------------------------------------|
|---3---| |---3---| |---3---| |---3---| E E E E E E E E E E E E
--54----------54----------54----------42----------|--------------38----------------------38----------|--35--35--35--35--35--35--35--35--35--35--35--35--|--------------------------------------------------|--------------------------------------------------|--------------------------------------------------|
|---3---| |---3---| |---3---| |---3---| E E E E E E E E E E E E
--54----------54----------54----------42----------|--------------38----------------------38----------|--35--35--35--35--35--35--35--35--35--35--35--35--|--------------------------------------------------|--------------------------------------------------|--------------------------------------------------|
|---3---| |---3---| |---3---| |---3---| E E E E E E E E E E E E
--42----------54----------42----------54-----------||--------------38----------------------38-----------||--35--35--35--35--35--35--35--35--35--35--35--35--*||--------------------------------------------------*||---------------------------------------------------||---------------------------------------------------||
|---3---| |---3---| |---3---| |---3---| E E E E E E E E E E E E
--42----------54----------42----------54----------|--------------38----------------------38----------|--35--35--35--35--35--35--35--35--35--35--35--35--|--------------------------------------------------|--------------------------------------------------|--------------------------------------------------|
|--3--| |-3-| |--3--| |---3---| Q E E Q Q E E E E
--42----------------------------------------|--------38--38--47----38----38--38--38------|--35------------------------------------35--|--------------------------------------------|--------------------------------------------|--------------------------------------------|
|--3--| |-3-| |--| |-3-| |--| |-3-| |--| Q E E S S E E S S E E S S E
------------------------------------------------------|--38----38--47--38-38-38--38--38-38-38--45--45-45-45--|--43--------------------------------------------------|------------------------------------------------------|------------------------------------------------------|------------------------------------------------------|
|--3--| |-3-| |---3---| |---3---| Q E E Q E E E E E E
--42------------42------------42--L----------|--------38--38--------38--38---------38--38--|--35------------35------------35-------------|---------------------------------------------|---------------------------------------------|---------------------------------------------|
|--3--| |-3-| |--| |-3-| |--| |---3---| Q E E S S E E S S E E E E
----------------------------------------------------|--38----38--47--38-38-38--38--47-47-47--45--45--45--|----------------------------------------------------|----------------------------------------------------|----------------------------------------------------|----------------------------------------------------|
|--3--| |---3---| |--3--| |---3---| Q E E E E Q E E E E
--42--------42----------42--------42----------|------------------------38--------------------|--35----35------35--35--35----35------35--35--|----------------------------------------------|----------------------------------------------|----------------------------------------------|
|--3--| |---3---| |--3--| |---3---| Q E E E E Q E E E E
--42--------42----------42--------42----------|--38--------------------38--------------------|--35----35------35--35--35----35------35--35--|----------------------------------------------|----------------------------------------------|----------------------------------------------|
|---3---| |---3---| |---3---| |---3---| E E E E E E E E E E E E
--42----------42----------42----------42----------|--38----------38----------38----------38----------|------35--35------35--35------35--35------35--35--|--------------------------------------------------|--------------------------------------------------|--------------------------------------------------|
|---3---| |---3---| |---3---| |---3---| E E E E E E E E E E E E
--42----------42----------42----------------------|--38----------38----------38------38--38--38--38--|------35--35------35--35------35------------------|--------------------------------------------------|--------------------------------------------------|--------------------------------------------------|
|---3---| |---3---| |---3---| |---3---| E E E E E E E E E E E E
|---42----------42----------42----------42----------||---------------38----------------------38----------||*--35--35--35--35--35--35--35--35--35--35--35--35--||*--------------------------------------------------||---------------------------------------------------||---------------------------------------------------|
|---3---| |---3---| |---3---| |---3---| E E E E E E E E E E E E
--42----------42----------42----------42------42--|--------------38----------------------38----------|--35--35--35--35--35--35--35--35--35--35--35--35--|--------------------------------------------------|--------------------------------------------------|--------------------------------------------------|
|---3---| |---3---| |---3---| |---3---| E E E E E E E E E E E E
--42----------42----------42----------42----------|--------------38----------------------38----------|--35--35--35--35--35--35--35--35--35--35--35--35--|--------------------------------------------------|--------------------------------------------------|--------------------------------------------------|
|---3---| |---3---| |---3---| |---3---| E E E E E E E E E E E E
--42----------42----------42------42--42--42------|--------------38----------------------38----------|--35--35--35--35--35--35--35--35--35--35--35--35--|--------------------------------------------------|--------------------------------------------------|--------------------------------------------------|
|---3---| |---3---| |---3---| |---3---| E E E E E E E E E E E E
--42----------42----------42----------42----------|--------------38----------------------38----------|--35--35--35--35--35--35--35--35--35--35--35--35--|--------------------------------------------------|--------------------------------------------------|--------------------------------------------------|
|---3---| |---3---| |---3---| |---3---| E E E E E E E E E E E E
--42----------42----------42----------42----------|--------------38----------------------38----------|--35--35--35--35--35--35--35--35--35--35--35--35--|--------------------------------------------------|--------------------------------------------------|--------------------------------------------------|
|---3---| |---3---| |---3---| |---3---| E E E E E E E E E E E E
--42----------42----------42----------42----------|--------------38----------------------38----------|--35--35--35--35--35--35--35--35--35--35--35--35--|--------------------------------------------------|--------------------------------------------------|--------------------------------------------------|
|---3---| |---3---| |---3---| |---3---| E E E E E E E E E E E E
--42--42--42--42----------42--42--42---------------||--------------38----------------------38--38--38---||--35--35--35--35--35--35--35--35--35--35--35--35--*||--------------------------------------------------*||---------------------------------------------------||---------------------------------------------------||
|---3---| |---3---| |---3---| |---3---| E E E E E E E E E E E E
--42----------42----------42----------42----------|--------------38----------------------38----------|--35--35--35--35--35--35--35--35--35--35--35--35--|--------------------------------------------------|--------------------------------------------------|--------------------------------------------------|
|---3---| |---3---| |---3---| |---3---| E E E E E E E E E E E E
--42----------42----------42----------42----------|--------------38----------------------38----------|--35--35--35--35--35--35--35--35--35--35--35--35--|--------------------------------------------------|--------------------------------------------------|--------------------------------------------------|
|---3---| |---3---| |---3---| |---3---| E E E E E E E E E E E E
--42----------42----------42----------42----------|--------------38----------------------38----------|--35--35--35--35--35--35--35--35--35--35--35--35--|--------------------------------------------------|--------------------------------------------------|--------------------------------------------------|
|---3---| |---3---| |---3---| |---3---| E E E E E E E E E E E E
--42----------42----------42----------42----------|--------------38----------------------38----------|--35--35--35--35--35--35--35--35--35--35--35--35--|--------------------------------------------------|--------------------------------------------------|--------------------------------------------------|
|---3---| |---3---| |---3---| |---3---| E E E E E E E E E E E E
--42----------42----------42----------42----------|--------------38----------------------38----------|--35--35--35--35--35--35--35--35--35--35--35--35--|--------------------------------------------------|--------------------------------------------------|--------------------------------------------------|
|---3---| |---3---| |---3---| |---3---| E E E E E E E E E E E E
--42----------42----------42----------42----------|--------------38----------------------38----------|--35--35--35--35--35--35--35--35--35--35--35--35--|--------------------------------------------------|--------------------------------------------------|--------------------------------------------------|
|---3---| |---3---| |---3---| |---3---| E E E E E E E E E E E E
--42----------42----------42------42---L----------|--------------38----------------------38--47--38--|--35--35--35--35--35--35--35--35--35--35--35--35--|--------------------------------------------------|--------------------------------------------------|--------------------------------------------------|
|---3---| |---3---| |---3---| |---3---| E E E E E E E E E E E E
--42----------42----------42----------42----------|--------------38----------------------38----------|--35--35--35--35--35--35--35--35--35--35--35--35--|--------------------------------------------------|--------------------------------------------------|--------------------------------------------------|
|---3---| |---3---| |---3---| |---3---| E E E E E E E E E E E E
--42----------42----------42----------42----------|--------------38----------------------38----------|--35--35--35--35--35--35--35--35--35--35--35--35--|--------------------------------------------------|-------------------------------------------------
Please rate this tab:
x1.0