Gamma Ray – Heaven Cant Wait tab

HEAVEN CAN WAIT

(Done in 27/12/1999)
Hi folks
This is other cool song from Gamma Ray
Taken off from his debut album "heading for tomorrow"
I'm from Spain if you have any corrections or anything to say me 
writte to :
Hansen@datalogic.es


2 times--------------------------------------------------------------------------------------------------------------------------------------------------------------------------------------------------------------7-9----------9-----7---7-7-7-6-7----------9---11-9-7-11-9-------7-9-11---- --7------7-----5---5-5-5-4-5----7-----7----9-7-5--9-7--9-11----------- --5-----------------------------5-------------------------------------
vocals 2 times--------------------------|----------------------------------------|--------------------------|----------------------------------------| --------------------------|--------------------------------------9-|--------9----11------7--9-|-------9----11----9-7----------9-11-12--| --7-----7-----9------5--7-|--7----7-----9----7-5--9-11-12----------| --5-----------------------|--5-------------------------------------|
BRIDGE (B) (A) (G) -------------------------------------------------------------------------------------------------------------------------------------------------------------------------------------------------------------------------------------------------------------------------------------5-5-4-4----------5-5-4-4----------5-5-4-4----------5-5-4-4------7-7---------5-7--7-7---------5-5--3-3---------5-3--3-3---------5-5-
(D) (A)(B)--------------------------------------------------------------------------------------------------------------------------------------------------------------------------------------------------------------------4-4--------------4-4---------------------------------------------5-5-----7-7-4-5--5-5-----7-7-4-4----------4-4-7-7-------4-5-7-5-4--------------------------------------5-5-7-7-----------5-7-----------5-
-------------------------------------------------------------------------------------------------------------------------------------------------------------------------------------------------------------------------------------------------------------------------------------5-5-4-4----------5-5-4-4----------5-5-4-4----------5-5-4-4------7-7---------5-7--7-7---------5-5--3-3---------5-3--3-3---------5-5-
--------------------------------------------------------------------------------------------------------------------------------------------------------------------------------------------------------------4-4--------------4-4----------9-9-9-9-9-9-9-9-9-9/21-----------5-5-----7-7-4-5--5-5-----7-7-4-4--7-7-7-7-7-7-7-7-7-7/19---------- -------------------------------------------------------------------
SLOW CHORUS ---------|-------------|---------|-----------|-------|------------|------------|-------------|---------|-----------|-------|------------|------------|-------------|---------|-----------|-------|------------|------------|-------------|---------|-----------|-7-----|-(7)---6--7-|-9--7-------|-(7)----6----|-4-------|-(4)---2---|-5-----|-(5)---4--5-|-7--5-------|-(5)----4----|-2-------|-(2)---0---|-------|------------|---
TWICE-------------------------------------------------------7-9----------7-9-11-------7-9-11---------------------------------
FAST CHORUS -------------------------------------------------------------|-------------------------------------------------------------|------(9)-(9)------------(9)-(9)--------(9)-(9)--------------|------(9)-(9)------------(9)-(9)--------(9)-(9)--------------|-7-----7---7----6---------7---7-----4----7---7----2----------|-5--------------4-------------------2-------------0----0-2-4-|
()2ND GUITAR
SOLO---------------------------------------------------------------------------------------------------------------- -------------------------------------------------------------------------9-------------7-----------7--6--7--9----7---------------7-------------5-----------5--4--5--7----5------------------------------------------------------
------------------14------------(14)-------------------- ---------17-17-17----17---------(17)-------------------- -------------------------------------------------------- -------------------------------------------------------- -------------------------------------------------------- --------------------------------------------------------
--------------------------------------------------- --------------------------------------------------- --------------------------------------------------- -----------------9--------------11--9--7-11--9-----7---------------7---------------9--7--5--9--7----- -5-------------------------------------------------
------------------------------------------------- -----------17-17-17---(17)----------------------- -----------18-18-18--19-18--16--14-16-14----------- ------------------------------------------------- ------------------------------------------------ ------------------------------------------------
---------------------------------------------------------------------------------------------------------------- -------------------------------------------------------------------------9-------------7-----------7--6--7--9----7---------------7-------------5-----------5--4--5--7----5------------------------------------------------------
--------------------------------------------------------- --------------------------------------------------------- ----------------14----14-14-16-14----------------------------------14-16----16------------------------------------ --------------------------------------------------------- ---------------------------------------------------------
-----------------------------------------------------------------------------------------------------------------------------------------------------------------------------------------------------------------9-----------------------------------------------7---------------7----------5-5-5-5-5-5-5-5-5-7-7-7-7-7-7-7-7-7- -5--------------------------------------------------------------
---------------------------------------------------------------------------------------------------------------------------------------------------------5---5-7-9-7—-9-10-12--------------------------------------------------------4-6-4--6-7---7---------------------------------------------------------4---4-6-7-6--7----------------------------------------------------------------5-4-5-7---7------------------------------------------------------------------------------------------------------------------------------------
----------------------------------------------------------------------------------------------------------------------------------------------------------------------------------------------------------------------------------------------------------7----7--6---4--2---4-----------7-------7-6---4---2---4--------2-------5----5--4---2--0---2-----7---6-5-------5-4---2---0---2--------0------------------------------555-444
-----------------------------------------------------------------------14--17-------------------------------------------14-17-(19)-17(19)17- --------16-14-16----14-16-14--------------------14-------------------------------------------------16----14-16-14---16------------------------------------------------------------------------------------------------------------------------------------------------------------------
-----------------------------------------------------------------------------------------------------------------------------------------------------------------------------------------9------------------------------------------7----6/7-6-7-/9------9--7-------7-6---4---2---4--------2--------5----4/5-4-5-/7---------5-------5-4---2---0---2--------0-------------------------------
----------------------------------------|---------------------------15-14----------------------------------|-------------------121415/17--------16-14-16--14---------------------|--------------111314---------------------------171614---------------|---------111214--------------------------------------171614---------|----111214-------------------------------------------------171614\12|-1214-----------------------
-----------------------12---------------------------------------------------------------121415---/19--17-15-17--------------------------------------------111314-------------------16--------9-7-6---7-6----6--------------111214----------------------------------------9-----9-7--9-7-6----111214---------------------------------------------------------------14-------------------------------------------------------------------
-------------------------------------15-19-15---------15-19\-- -----------------------------------17--------17----17--------- ---------------------------------16-------------16------------ -9-7-6---7-6-------------------17----------------------------- -------9-----9-7---(7)-------19------------------------------- --------------------------------------------------------------
-----------------------------------------------------------------------------------------------------------------------------------------------------------------6----4--3--4--6---------9------7-----6--7--9---------4-----4----2--1--2--4--7------7------5-----4--5--7---------2----------------------5---------------------------------------------------------
-------------------------------------------------------------------------------------------------------------------------------------------------------------------------------------------------------------------4-----6------9------11------------------------------------------------2-----4------7-------9-9-9-9-9-9-9-9/16-16-16-16-16-16-16/21-21-21-21 ----------------------------------------------------------------------
-----------------------------------------|-----------------------------------------|-----4--4--------4--4--------------------|-4---4--4----3---4--4------6--6----------|-2-----------1---------6---6--6------1---|-----------------------4---------2-4---2-|
------------------------------------------------------------ -------------------------------------------------------------------------------------------------------------------------------------------------------------------------------------2-2-2-2-2-2-2-2-2-------------------------------------------------------------0-0-0-0-0-0-0--2--4--2-2-2-2-2-2-2-2-2-2- HEAVEN___________ CAN WAIT_______
------------------------------------------------------------ ------------------------------------------------------------ ------------------------------------------------------------ ------------------------------------------------------------ ------------------------------------------------------------ ------------------------------------------------------------
Please rate this tab:
x1.0