Gary Moore - As The Years Go Passing By tab

Artist    ~ Gary Moore
Song      ~ As the years go passing by
Tabbed by ~ Terry Sims (Masterofdarknes)
Email     ~ Floyd_Fan89@teenspot.com


Intro


|--------------------11-13-|-13b15===(13)-(13)r-----------||-----------------13-------|------------------------------||--------------------------|------------------------------||--------------------------|------------------------------||--------------------------|------------------------------||--------------------------|------------------------------|
|---13-11------------11------------8-8-----------------||---------13-13-(13)--------------11-8-----------------||--------------------------------------10b12-(10)-10---||------------------------------------------------------||------------------------------------------------------||------------------------------------------------------|
|---------------------------------------------------||-----------------8---------------------------------||-8-10-10b12-(10)---10------------------------------||----------------------10-(10)-10-(10)--(10)--------||---------------------------------------------------||---------------------------------------------------|
|-------------------------------------|||-------------------------------------|||-------------------------------------|||---8---------------------------------|||-----10-9-8-5-8-8-10---6-(6)---------|||-------------------------------------||
|-------------------------------------------------||-------------------------------------------------||----------------10b11==(10)r(10)p8----------8----||-----------10----------------------10-10-10------||-------------------------------------------------||-------------------------------------------------|
|-----------------------------------------------------||-----------11----------------------------------------||--------------10b11-(10)-10-8-10-10b12-(10)----------||--------------------------------------------10-(10)--||-----------------------------------------------------||-----------------------------------------------------|
|--------------|-8-11-8-(8)-(8)---------||--------------|------------------------||--------------|------------------------||--------------|------------------------||--------------|------------------------||--------------|------------------------|
|------------------------------------||----------------11-(11)-------------||------------------------10b12==(10)r||------------------------------------||------------------------------------||------------------------------------|
|-------------------------------------------------|------||-------------------------------------------------|------||-(10)-8-10-10b12==(10)-(10)---(10)r-----10-8-----|------||---------------------------------------------10--|------||-------------------------------------------------|------||-------------------------------------------------|------|
|-----------------------------------------|--------------------------||-----------------------------------------|------------11b13==(11)---||-10b11==(10)r(10)-8----------------------|--------------------------||--------------------10-10-(10)-----------|--------------------------||-----------------------------------------|--------------------------||-----------------------------------------|--------------------------|
|---------------------------------------------------------------||-(11)r(11)-8---------------------------------------------------||-------------10-10b11==(10)r(10)-8------------8h10-8--(8)------||-----------------------------------10-10-(10)------------------||---------------------------------------------------------------||---------------------------------------------------------------|
Tap to rate this tab
 
# A B C D E F G H I J K L M N O P Q R S T U V W X Y Z