Gary Numan – Are You Real tab

This is the first full tab I've done. Sounds correct to me

|----------------------------------------||----------------------------------------||----------------------------------------||----------------------------------------||----------------------------------------||-12-12--9-10---12-12--9-10-9-5----------| x8
|----------------------------------------||----------------------------------------||----------------------------------------||----------------------------------------||-12-12--9-10---12-12--9-10-9-5----------||----------------------------------------|
|----------------------------------------||----------------------------------------||----------------------------------------||----------------------------------------||-12-12--9-10---10-9--5-4----------------||----------------------------------------|
|----------------------------------------||----------------------------------------||----------------------------------------||----------------------------------------||----------------------------------------||-12-12--9-10---12-12--9-10-9-5----------| x2
|----------------------------------------||----------------------------------------||----------------------------------------||----------------------------------------||------------------12-----------10-------||-3----------10-12---------9-10----------|
|----------------------------------------||----------------------------------------||----------------------------------------||----------------------------------------||----------------------------------------||-12-12--10-9---12-12--10-9--------------|
|----------------------------------------||----------------------------------------||----------------------------------------||----------------------------------------||------------------12-----------10-------||-3----------10-12---------9-10----------|
|----------------------------------------||----------------------------------------||----------------------------------------||----------------------------------------||----------------------------------------||-12-12--10-9---12-12--10-9--------------|
|----------------------------------------||----------------------------------------||----------------------------------------||----------------------------------------||----------------------------------------||-12-12--10-9---12-----------------------|
|----------------------------------------||----------------------------------------||----------------------------------------||----------------------------------------||----------------------------------------||-12-12--9-10---12-12--9-10-9-5----------| x4
|----------------------------------------||----------------------------------------||----------------------------------------||----------------------------------------||-12-12--9-10---12-12--9-10-9-5----------||----------------------------------------|
|----------------------------------------||----------------------------------------||----------------------------------------||----------------------------------------||-12-12--9-10---10-9--5-4----------------||----------------------------------------|
|----------------------------------------||----------------------------------------||----------------------------------------||----------------------------------------||----------------------------------------||-12-12--9-10---12-12--9-10-9-5----------| x2
|----------------------------------------||----------------------------------------||----------------------------------------||----------------------------------------||------------------12-----------10-------||-3----------10-12---------9-10----------|
|----------------------------------------||----------------------------------------||----------------------------------------||----------------------------------------||----------------------------------------||-12-12--10-9---12-12--10-9--------------|
|----------------------------------------||----------------------------------------||----------------------------------------||----------------------------------------||------------------12-----------10-------||-3----------10-12---------9-10----------|
|----------------------------------------||----------------------------------------||----------------------------------------||----------------------------------------||----------------------------------------||-12-12--10-9---12-12--10-9--------------|
|----------------------------------------||----------------------------------------||----------------------------------------||----------------------------------------||----------------------------------------||-12-12--10-9---12-----------------------|
------------------------------------------- Background -------------------------------------------
|----------------------------------------||----------------------------------------||----------------------------------------||----------------------------------------||----------------------------------------||-12-12--9-10---12-12--9-10-9-5----------| x4
|----------------------------------------||----------------------------------------||----------------------------------------||----------------------------------------||-12-12--9-10---12-12--9-10-9-5----------||----------------------------------------|
|----------------------------------------||----------------------------------------||----------------------------------------||----------------------------------------||-12-12--9-10---10-9--5-4----------------||----------------------------------------|
|----------------------------------------||----------------------------------------||----------------------------------------||----------------------------------------||----------------------------------------||-12-12--9-10---12-12--9-10-9-5----------| x2
|----------------------------------------||----------------------------------------||----------------------------------------||----------------------------------------||------------------12-----------10-------||-3----------10-12---------9-10----------|
|----------------------------------------||----------------------------------------||----------------------------------------||----------------------------------------||----------------------------------------||-12-12--10-9---12-12--10-9--------------|
|----------------------------------------||----------------------------------------||----------------------------------------||----------------------------------------||------------------12-----------10-------||-3----------10-12---------9-10----------|
|----------------------------------------||----------------------------------------||----------------------------------------||----------------------------------------||----------------------------------------||-12-12--10-9---12-12--10-9--------------|
|----------------------------------------||----------------------------------------||----------------------------------------||----------------------------------------||----------------------------------------||-12-12--10-9---12-----------------------|
------------------------------------------- Foreground -------------------------------------------
|----------------------------------------||----------------------------------------||----------------------------------------||----------------------------------------||----------------------------------------||-12-12--9-10---12-12--9-10-9-5----------| x4
|----------------------------------------||----------------------------------------||----------------------------------------||----------------------------------------||-12-12--9-10---12-12--9-10-9-5----------||----------------------------------------|
|----------------------------------------||----------------------------------------||----------------------------------------||----------------------------------------||-12-12--9-10---10-9--5-4----------------||----------------------------------------|
|----------------------------------------||----------------------------------------||----------------------------------------||----------------------------------------||----------------------------------------||-12-12--9-10---12-12--9-10-9-5----------| x2
|----------------------------------------||----------------------------------------||----------------------------------------||----------------------------------------||------------------12-----------10-------||-3----------10-12---------9-10----------|
|----------------------------------------||----------------------------------------||----------------------------------------||----------------------------------------||----------------------------------------||-12-12--10-9---12-12--10-9--------------|
|----------------------------------------||----------------------------------------||----------------------------------------||----------------------------------------||------------------12-----------10-------||-3----------10-12---------9-10----------|
|----------------------------------------||----------------------------------------||----------------------------------------||----------------------------------------||----------------------------------------||-12-12--10-9---12-12--10-9--------------|
|----------------------------------------||----------------------------------------||----------------------------------------||----------------------------------------||----------------------------------------||-12-12--10-9---12-----------------------|
Please rate this tab:
x1.0