Gauchos De Acero - Enemigo Mortal tab

Intro:

|-------------||-------------||-------------||-------------||-12/...------||-------------|
|-----------------------------------||-----------------------------------||-----------------------------------||-----00-3-00-5-00-6-00-5-00-3-0-5--||-----------------------------------||-----------------------------------| x8
|-----------------------------||-----------------------------||-----------------------------||--5-7------------5-7-8-------||--3-5------------3-5-6-------||------000000000---------000--| x4
------------------------------------------------
|---------------------------||---------------------------||---------------------------||-5-7-----------------------||-3-5-----------------------||-----000000000000000000000-| Era una noche de frio
|---------------------------||---------------------------||---------------------------||-5-7-----------------------||-3-5-----------------------||-----000000000000000000000-| Como todas las demas
|-----------------------------||-----------------------------||-----------------------------||-5-7-------------------------||-3-5-------------------------||-----00000000000000000000000-| El estaba con sus hijos
|---------------------------||---------------------------||---------------------------||-5-7-----------------------||-3-5-----------------------||-----000000000000000000000-| Y una amistad mortal
|---------------------------||---------------------------||---------------------------||-3----------2---------3----||-1----------0---------1----||---------------------------| Un sintoma raro sintio
|-------------------------||-------------------------||-------------------------||--------------2-------3--||--------------0-------1--||-------------------------| Y no era el unico
|---------------------------||---------------------------||---------------------------||--------------2---------3--||--------------0---------1--||---------------------------| Sus hijos estaban muy mal
|---------------------------||---------------------------||---------------------------||------------2--------------||------------0--------------||---------------------------| Solo le quedaba esperar
|------------------------------------------------||------------------------------------------------||------------------------------------------------||------------------------------------------------||-5-3-5/7-5-7/8-7-8/10-8-10/12-12-12-12-12-12-12-||------------------------------------------------|
|---------------------------||---------------------------||---------------------------||-5-7-----------------------||-3-5-----------------------||-----0000000000000000000000| De a poco se disparcio
|--------------------------------||--------------------------------||--------------------------------||-5-7----------------------------||-3-5----------------------------||-----00000000000000000000000000-| Hasta que el hombre sintio
|-----------------------------||-----------------------------||-----------------------------||-5-7-------------------------||-3-5-------------------------||-----00000000000000000000000-| Su pecho en comprension
|---------------------------||---------------------------||---------------------------||-5-7-----------------------||-3-5-----------------------||-----000000000000000000000-| Y que la muerte llego
|---------------------------||---------------------------||---------------------------||-3----------2---------3----||-1----------0---------1----||---------------------------| El telefono agarro
|-------------------------||-------------------------||-------------------------||--------------2-------3--||--------------0-------1--||-------------------------| Pidiendo una solucion
|-----------------------------||-----------------------------||-----------------------------||--------------2-----------3--||--------------0-----------1--||-----------------------------| Al borde de la muerte estan
|---------------------------||---------------------------||---------------------------||---------------2-----------||---------------0-----------||---------------------------| Pero ellos se salvaran
|------------------------------------------------||------------------------------------------------||------------------------------------------------||------------------------------------------------||-5-3-5/7-5-7/8-7-8/10-8-10/12-12-12-12-12-12-12-||------------------------------------------------|
|------------------------------------------------||------------------------------------------------||------------------------------------------------||-5/7---7--5/7----10-10-10--9----5-7---7---2--5--||-3/5---5--3/5----8--8--8---7----3-5---5---0--3--||-----0--------00--------------------0-----------|
|------------------------------------||------------------------------------||------------------------------------||-----5/7---7--5/7----10-10-10-9-----||-----3/5---5--3/5----8--8--8--7-----||---------0--------00----------------| x7
|---------------------------||---------------------------||---------------------------||-2-------------------------||-0-------------------------||---------------------------| Solo quiero expresar
|---------------------------||---------------------------||---------------------------||-4-------------------------||-2-------------------------||---------------------------| En esta cancion
|---------------------------||---------------------------||---------------------------||---------------------------||-5-------------------------||-3-------------------------| Que solo pocos
|---------------------------||---------------------------||---------------------------||-5-------------------------||-3-------------------------||---------------------------| Tienen salvacion
|---------------------------||---------------------------||---------------------------||-2-------------------------||-0-------------------------||---------------------------| Este gas mortal
|---------------------------||---------------------------||---------------------------||-4-------------------------||-2-------------------------||---------------------------| No te perdonara
|---------------------------||---------------------------||---------------------------||---------------------------||-5-------------------------||-3-------------------------| Y sin vida...
|---------------------------||---------------------------||---------------------------||-5-------------------------||-3-------------------------||---------------------------| Quedaras.
------------------------------------------------------------- I haven't got the solo's tab :/ -------------------------------------------------------------
|--------------------------------||--------------------------------||--------------------------------||--00-3-00-5-00-6-00-5-00-3-0-5--||--------------------------------||--------------------------------|
Tap to rate this tab
 
# A B C D E F G H I J K L M N O P Q R S T U V W X Y Z