Gazette - Filth In The Beauty tab

Gazette - Filth In The Beauty

Dropped in C

Intro (actually a lot of shit on acoustic which I canít figure out, so I put on a simple bassline):|-------------------------||-------------------------||-------------------------| |-------------------------||-------------------------||--(7)---(3)---(5)---(5)--|
Main Riff (2x):|------------------------------------------------------------||------------------------------------------------------------||------------------------------------------------------------||------------------------------------------------------------||-0-0-0-0--0-0-0-0-0-0--0-0-0---0-0-0-0--0-0-0-3-3-3--5-5-5--||-0-0-0-0--0-0-0-0-0-0--0-0-0---0-0-0-0--0-0-0-3-3-3--5-5-5--|
|-------------------------------------------------------------||-------------------------------------------------------------||-------------------------------------------------------------||-------------------------------3-3-3-3--3-3-3-5-5-5--5-5-5---||-0-0-0-0--0-0-0-0-0-0--0-0-0---1-1-1-1--1-1-1-3-3-3--3-3-3-0-||-0-0-0-0--0-0-0-0-0-0--0-0-0-------------------------------0-|
Small Bridge:|--------------------||--------------------||--------------------||--------------------||-0-0-0-0--0-0-0-0-0-||-0-0-0-0--0-0-0-0-0-|
Verse (almost similar to intro)
Verse pt 2:|-----|---------------------------------------------------------||-----|---------------------------------------------------------||-----|---------------------------------------------------------| 3x|-----|---------------------------------------------------------||-x-x-|-0-0-0-0--0-0-0-0-0-0--0-0-0--0-0-0-0--0-0-0-0-0-0--3--3-||-x-x-|-0-0-0-0--0-0-0-0-0-0--0-0-0--0-0-0-0--0-0-0-0-0-0--3--3-|
|----------------------------------------------------||----------------------------------------------------||----------------------------------------------------| 1x|---------------------------------------3-3-3--5-5-5-||-0-0-0-0--0-0-0-0-0-0--0-0-0--0-0-0-0--1-1-1--3-3-3-||-0-0-0-0--0-0-0-0-0-0--0-0-0--0-0-0-0---------------|
Bridge to Chorus:|-----------------------------------------------------||-----------------------------------------------------||-14-14-14-14---10-10-10-10----12-12-12-12---5-5-5-5--| 2x|--x--x--x--x----x--x--x--x-----x--x--x--x---x-x-x-x--||-12-12-12-12----8--8--8--8----10-10-10-10---3-3-3-3--||-----------------------------------------------------|
|--------------------||--------------------||--------------------||--------------------||-0-0-0-0--0-0-0-0-0-||-0-0-0-0--0-0-0-0-0-|
Chorus:|---------------------||---------------------||------3---------5----| 4x|-0----3----3----5----||-0----1----3----3----||-0---------3---------|
Bridge:|---------------------------||---------15~-----------15~-||---------------------------| 12x|---------------------------||---------------------------||-0-0-0-0-------0-0-0-0-----|
|-------||-------||-------||-0-----||-0-----||-0-----|
|---------------------------||---------------------------||---------------------------| 8x|---------------------------||-0--0-0-------0--0-0-------||-0--0-0--353--0--0-0--353--|
|-----|---------------------------------------------------------||-----|---------------------------------------------------------||-----|---------------------------------------------------------| 3x|-----|---------------------------------------------------------||-x-x-|-0-0-0-0--0-0-0-0-0-0--0-0-0--0-0-0-0--0-0-0-0-0-0--3--3-||-x-x-|-0-0-0-0--0-0-0-0-0-0--0-0-0--0-0-0-0--0-0-0-0-0-0--3--3-|
|----------------------------------------------------||----------------------------------------------------||----------------------------------------------------| 1x|---------------------------------------3-3-3--5-5-5-||-0-0-0-0--0-0-0-0-0-0--0-0-0--0-0-0-0--1-1-1--3-3-3-||-0-0-0-0--0-0-0-0-0-0--0-0-0--0-0-0-0---------------|
Bridge to Chorus:|-----------------------------------------------------||-----------------------------------------------------||-14-14-14-14---10-10-10-10----12-12-12-12---5-5-5-5--| 2x|--x--x--x--x----x--x--x--x-----x--x--x--x---x-x-x-x--||-12-12-12-12----8--8--8--8----10-10-10-10---3-3-3-3--||-----------------------------------------------------|
|--------------------||--------------------||--------------------||--------------------||-0-0-0-0--0-0-0-0-0-||-0-0-0-0--0-0-0-0-0-|
Chorus:|---------------------||---------------------||------3---------5----| 8x|-0----3----3----5----||-0----1----3----3----||-0---------3---------|
|--------------------||--------------------||--------------------||--------------------||-0-0-0-0--0-0-0-0-0-||-0-0-0-0--0-0-0-0-0-|
Outro:|---------------------------------------------------------||---------------------------------------------------------||---------------------------------------------------------| 2x|---------------------------------------------------------||-0-0-0-0--0-0-0-0-0-0--0-0-0--0-0-0-0--0-0-0-0-0-0--3--3-||-0-0-0-0--0-0-0-0-0-0--0-0-0--0-0-0-0--0-0-0-0-0-0--3--3-|
|---------------------------------------------------------||---------------------------------------------------------||-----------------------5----------------------------5----| |-----------------------5----------------------------5----||-0-0-0-0--0-0-0-0-0-0--3------0-0-0-0--0-0-0-0-0-0--3----||-0-0-0-0--0-0-0-0-0-0---------0-0-0-0--0-0-0-0-0-0-------|
|----------------------||----------------------||----------------------||----------------------||-0-0-0-0--0-0-0-0-0---||-0-0-0-0--0-0-0-0-0---|
Tap to rate this tab
 
# A B C D E F G H I J K L M N O P Q R S T U V W X Y Z