Get Up Kids - Dont Hate Me tab

DON'T HATE ME
The Get Up Kids
kensarcade@hotmail.com

First Verse ("Forgive me..."):

guitar 1 (clean):

F#(?)-D5-Dmaj7-F#(?)--E5---D5

-----------------------------------------------------------------9-9--7-7-6-6---9-9---9-9--7-7--------7-7-7-7---------9-9--7-7---9-9--5-5-5-5---9-9---7-7--5-5----------------------------------
then (drums in; "Each night..."): guitar 1: F#(?)--------------------D5----------Dmaj7
---------------------------------------------------------------------------------------------9-----------9-----------7-----7-----6-----6---------------------------7-----7-----7-----7---9-----------9-----------5-----5-----5-----5------------------------------------------------
guitar 2 (clean):
-------------------------------------------------------9-----9-----9-----9-----9-----9-----9-----9---9-9---9-9---9-9---9-9---9-9---9-9---9-9---9-9----------------------------------------------------------------------------------------------------------------------------------------------------------
then ("...that someday..."): guitar 1: *(distortion on) F#(?)--------E5-----------D5---Dmaj7
-------------------------------------------------------------------------9-----9-----9-----9------7------6---------------9-----9------7------7---9-----9-----7-----7------5------5--------------------------------------
guitar 2: *(distortion on)
-----------------------------------------------9-----9-----9-----9-------------------9-9---9-9---9-9---9-9----7------14-13-9----------------------------7-----------------------------------------5------12-11-7--------------------------------------------
Second Verse ("These constant reminders..."): guitar 1 (clean): F#(?)-D5--Dmaj7-F#(?)-E5---D5
-----------------------------------------------------------------9-9--7-7--6-6---9-9--9-9--7-7--------7-7--7-7--------9-9--7-7---9-9--5-5--5-5---9-9--7-7--5-5----------------------------------
guitar 2 : out then ("The chance of..."): guitar 1: F#(?)--------------------D5----------Dmaj7
---------------------------------------------------------------------------------------------9-----------9-----------7-----7-----6-----6---------------------------7-----7-----7-----7---9-----------9-----------5-----5-----5-----5------------------------------------------------
guitar 2 (clean):
-------------------------------------------------------9-----9-----9-----9-----9-----9-----9-----9---9-9---9-9---9-9---9-9---9-9---9-9---9-9---9-9----------------------------------------------------------------------------------------------------------------------------------------------------------
then ("...what a great..."): guitar 1: *(distortion on) F#(?)--------E5-------------D5------Dmaj7
-----------------------------------------------------------------------------------9-----9------9-----9-------7---------6----------------9-----9-------7---------7---9-----9------7-----7-------5---------5-------------------------------------------
guitar 2: (distortion on)*
-----------------------------------------------9------9-----9-----9------------------9-9---9-9----9-9---9-9-----12-11-7---14------------------------------------------------------------------------10--9-5---12--------------------------------------------
First Chorus ("Oh Amy..."): guitars 1 & 2: A5----D5---B5---D5-----A5------D5---B5-----D5-C#5-B5
----------------------------------------------------------------------------------------------------------------7-7--4-4--7-7------------7-7--4-4-----7--6--4---7-7--7-7--4-4--7-7----7-7-----7-7--4-4-----7--6--4---7-7--5-5--2-2--5-5----7-7-----5-5--2-2-----5--4--2---5-5-------------------5-5---------------------------
guitar 3 (keyboard):
-----------------------------------------------------------------------------------------------------9-(sustain)-----------6-9-6--------6-9-6--------------------------------------7-9-7--------7-9--7------------------------------------------------------------------------------------------------------
then ("Oh Amy..."): guitar 1: A5----D5---B5---D5-------A5----D5---B5-----D5
---------------------------------------------------------------------------------------------2-2--7-7--4-4--7-7------------7----4------7---2-2--7-7--4-4--7-7------7-----7----4------7---0-0--5-5--2-2--5-5------7-----5----2------5---------------------------5--------------------
guitar 2:
-------------------------------------------------------------------------------------------------------2-2--7-7--4-4--14-13-11-9-11-9-----9--13--14--16---2-2--7-7--4-4--------------------------------------0-0--5-5--2-2--12-11--9-7--9-7-----7--11--12--14-----------------------------------------------------
guitar 3: ---- ---- -6-- ---- ---- ---- Bridge ("I'm sorry..."): guitar 1: -A---C#m---D----Bm---------E
-5-5--4-4--5-5--2-----2----0---5-5--5-5--7-7--3-----3----0---6-6--6-6--7-7--4-----4----1---7-7--6-6--7-7--4-----4----2---7-7--4-4--5-5--2-----2----2---5-5-----------------------0--
guitar 2:
-5-5--4-4--5-5---------------------------5-5--5-5--7-7---------------------------6-6--6-6--7-7--7-6-7-9-7--13-13-14-16---7-7--6-6--7-7---------------------------7-7--4-4--5-5-------------11-11-12-14---5-5------------------------------------
then ("Your place..."): guitar 1: -A---C#m---D----F#5---E5-D5----F#5--E5-D5-Dmaj7
-5-5--4-4--5-5---------------------------------5-5--5-5--7-7---------------------------------6-6--6-6--7-7-----------7--7----------7---6---7-7--6-6--7-7---4----2--7--7---4---2--7---7---7-7--4-4--5-5---4----2--5--5---4---2--5---5---5-5-------------2----0---------2---0---------
guitar 2:
-5-5--4-4--5-5----------------------------------5-5--5-5--7-7----------------------------------6-6--6-6--7-7-----------14-14---------14--14---7-7--6-6--7-7---4----2---------4---2-----------7-7--4-4--5-5---4----2--12-12--4---2--12--12---5-5-------------2----0---------2---0----------
Second Chorus (drums, bass, and guitar 2 out; "Oh Amy.."): guitar 1 (clean): A5--------D5-----B5--------D5------A5-------D5-----B5--------D5
--------------------------------------------------------------------------------------------------------------------------------------------------7\-----4---------7----------------7\-----4---------------7------7------4---4/----7---7-----7------7------4---4/----7-----7---7--5------2---------5---------7---7--5------2---------5-----5---------------------------------5------------------------------
guitar 2 : 8-second smoke break then ("Oh Amy..."): guitars 1 & 2 (distorted): A5
-------------------7-7---7-7---5-5--
(bass)
---------------------------------------------------------------------------4-5-5-5-4-2-2-2-4-5-5-5-4---5-5-5----------------------------
then ("...love with you."): guitars 1 & 2: A5 ---------------------------------------- ---------------------------------------- ---------------------------------------- ---------------------------------------- --------------------x\--(pick scrapes)-- ---------------5b6--x\------------------ (bass)
---------------------------------------------------------------------------4-5-5-5-4-2-2-2-4-5-5-5-4---5-5-5----------------------------
Third Chorus ("Oh Amy..."): guitars 1 & 2: A5----D5---B5----D5------A5---D5---B5------D5
--------------------------------------------------------------------------------------------------------7-7--4-4---7--7---------7-7--4-4-----7--7---7-7--7-7--4-4---7--7----7-7--7-7--4-4-----7--7---7-7--5-5--2-2---5--5----7-7--5-5--2-2-----5--5---5-5---------------------5-5---------------------
guitar 3:
----------------------------------------------------------------------------------------------------18-16--18-18-16-14------18-16--18-18-16-14------------------------------------------------------16-14--16-16-14-12------16-14--16-16-14-12--------------------------------------------------
then (Oh Amy, don't hate me...): guitars 1 & 2: A5-----D5---B5----D5------A5----D5---B5-----------D5
-----------------------------------------------------------------------------------------------------------------------7-7--4-4---7--7----------7-7--4-4----------7--7---7-7---7-7--4-4---7--7----7-7---7-7--4-4----------7--7---7-7---5-5--2-2---5--5----7-7---5-5--2-2----------5--5---5-5----------------------5-5---------------------------
guitar 3:
----------------------------------------------------------------------------------------------------------------------18-16---18-18-16-14------18-16---18-18-16-14--16-18---------------------------------------------------------------16-14---16-16-14-12------16-14---16-16-14-12--14-16-----------------------------------------------------------
Outro (Every time..."): all guitars : out (bass)
---------------------------------------------------------------------------------------------------------------------------------------0-0-0-0-0-0-0-0-2-2-2-4-4-4-7-7\--------------------------------------------------------------------2-2-2-2-2-2-2-2-0-0-0-0-0-0-2-0--
then ("At the heart..."): (bass : same) then (drums in; Every time..."): (bass : same) then ("At the heart..."): (bass : same) then: guitar 1 (clean):
-----------------------------------2-3-2--2-3-2-0--2-3-3/5-2-3-2-0------------------------------------------------------------------------------------------------------------------------------------------
then: guitar 1:
----------------------------4--4---4--4h5-5-------2-3-2--2-3-2-0--2-3-2-3/5-------5----------5--------------------------------------------------6-----------------------------------------------------------------------------------------------------------------------------------------------------
Tap to rate this tab
 
# A B C D E F G H I J K L M N O P Q R S T U V W X Y Z