Get Up Kids - The Breathing Method tab

Get Up Kids - The Breathing Method guitar tabs and chords from Ogregod.com

The Breathing Method

The Get Up Kids

From the LP "Eudora"

transcribed by Jim Bodenschatz (kensarcade@hotmail.com)

TUNING: STANDARD

_______________________________________________________________________

Intro:

guitar 1 (clean):

-----------------------------------------------------------|-----------------------------------------------------------|-----------------------------------------------------------|-------------------------6-6-6-7-7-7-6-6-------9-------9---|-11-11-11-11-119-9-7-7--0-0-0-0-0-0-0-0---9-----9---9------|--9--9--9--9--0---0-0-0------------------7---7-----7-------|
then: guitar 1:
-----------------------------------------------------------|-----------------------------------------------------------|-----------------------------------------------8-----------|-------------------------6-6-6-7-7-7-6-6---------------9---|-11-11-11-11-119-9-7-7--0-0-0-0-0-0-0-0---9-----9---9------|--9--9--9--9--0---0-0-0------------------7---7-----7-------|
then: guitar 1:
----------------------------------------------------------|----------------------------------------------------------|----------------------------------------------------------|-------------------------6-6-6-4-4-4-4-4---9--------------|-11-11-11-11-119-9-7-7--0-0-0-0-0-0-0-0-----9--------9----|--9--9--9--9--0---0-0-0------------------7----------7-----|
guitar 2 (clean):
--------------------------------------------|--------------------------------------------|-------11--9----9p8-------------------------|--------------------9-----------------------|--------------7-----------------------------|-/9----------------------5----------5-5--7--|
then: guitar 1:
-----------------------------------------------------------|-----------------------------------------------------------|-----------------------------------------------8-----------|-------------------------6-6-6-7-7-7-6-6---------------9---|-11-11-11-11-119-9-7-7--0-0-0-0-0-0-0-0---9-----9---9------|--9--9--9--9--0---0-0-0------------------7---7-----7-------|
guitar 2:
--------------------------------------------|--------------------------------------------|-------11--9----9-8-------------------------|--------------9-------9---------------------|-11-----------7-----7-----------------------|--9----------------------5----------5-5--7--|
then (drums in): guitar 1:
-----------------------------------------------------------------------------------|-----------------------------------------------------------------------------------|-----------------------------------------------------------------------------------|-------------------------------------6-6-6-7-7-7-6-6---------------9-----------9---|-11-11-11-11-119--9--------7-----7--0-0-0-0-0-0-0-0---------9--------9-----9-------|--9--9--9--9--0----0--------0-----0-----------------------7-----7--------7---------|
guitar 2:
----------------------------------------------------------------------------------|----------------------------------------------------------------------------------|-11-11-11-9-9-9-13-11-11-11-9-9-9-13-11-11-11-9-9-9-9-9--11-11-11-13-13-13-11-11--|----------------------------------------------------------------------------------|--9--9--9-7-7-7-11--9--9--9-7-7-7-11--9--9--9-7-7-7-7-7---9--9--9-11-11-11--9--9--|----------------------------------------------------------------------------------|
then (0:52): guitar 1:
--------------------------------------------------------------------|--------------------------------------------------------------------|------------------------------------------------------------8-------|--------------------------------------6-6-6-7-7-7-6-6---------9-----|-11-11-11-11-119--9--------7-----7---0-0-0-0-0-0-0-0---9-------9----|--9--9--9--9--0----0--------0-----0-------------------7---7---------|
guitar 2:
-------------------------------------------------------------------|-------------------------------------------------------------------|-11-11-11-9-9-9-13-11-11-11-9-9-9-13-------------------------------|-------------------------------------------------------------9--x--|--9--9--9-7-7-7-11--9--9--9-7-7-7-11-14--14--14--14--9-9-9-9-9--x--|-----------------------------------------------------7-7-7-7-7-----|
then (1:01): guitar 1:
------------------------------------------------------------------|------------------------------------------------------------------|-------4-------4-------4-------4-------4-------4-------4-------4--|---2-----2---2-----2-----2---2-----2-----2---2-----2-----2---2----|-4---4-----4-----2---2-----2-----0---0-----0----------------------|-------------------------------------------------0---0-----0------|
guitar 2:
------------------------------------------------------------------|-------------------------------------------------------7----------|--11---9---8-9-------9-----------------9h8-----------------9-8-9--|-------------------------9-------------------9--------------------|---------------------------------0--------------------------------|-----------------7------------------------------/7----------------|
then: guitar 1:
------------------------------------------------------------------|------------------------------------------------------------------|-------4-------4-------4-------4-------4-------4-----4-----2-1----|---2-----2---2-----2-----2---2-----2-----2---2-----2---2-------2--|-4---4-----4-----2---2-----2-----0---0-----0----------------------|-------------------------------------------------0-------0--------|
guitar 2:
-----------------------------------------------------|-----------------------------------------------------|---11-9---8-9------9---------------------------------|-------------------------9---------------------------|-----------------------------------------------------|-9---------------7---------7-7-7-5-----------5/--0---|
then: guitar 1:
------------------------------------------------------------------|------------------------------------------------------------------|-------4-------4-------4-------4-------4-------4-------4-------4--|---2-----2---2-----2-----2---2-----2-----2---2-----2-----2---2----|-4---4-----4-----2---2-----2-----0---0-----0----------------------|-------------------------------------------------0---0-----0------|
guitar 2: C#5--------------B5--------------A5--------------B5
------------------------------------------------------------------|------------------------------------------------------------------|-6-6-6-6-6-6-6-6-4-4-4-4-4-4-4-4-2-2-2-2-2-2-2-2-4-4-4-4-4-4-4-4--|-6-6-6-6-6-6-6-6-4-4-4-4-4-4-4-4-2-2-2-2-2-2-2-2-4-4-4-4-4-4-4-4--|-4-4-4-4-4-4-4-4-2-2-2-2-2-2-2-2-0-0-0-0-0-0-0-0-2-2-2-2-2-2-2-2--|------------------------------------------------------------------|
guitar 3* (clean): * I'm not certain that there are actually three guitars in this part. I put the third guitar in because I'm hearing something that I can't seem to transcribe for only two instruments.
------------------------|---7---5-----4-4-5-5-0--|---4---4-----4-4-4-4-4--|------------------------|------------------------|------------------------|
then (1:28): guitar 1:
------------------------------------------------------------------|------------------------------------------------------------------|-------4-------4-------4-------4-4-4-4-4-4-4-4-4-4-4-4-4-4-4-4-4--|---2-----2---2-----2-----2---2---2-2-2-2-2-2-2-2-2-2-2-2-2-2-2-2--|-4---4-----4-----2---2-----2-----0-0-0-0-0-0-0-0-0-0-0-0-0-0-0-0--|------------------------------------------------------------------|
guitar 2: C#5--------------B5--------------A5
------------------------------------------------------------------|------------------------------------------------------------------|-6-6-6-6-6-6-6-6-4-4-4-4-4-4-4-4----------------------------------|-6-6-6-6-6-6-6-6-4-4-4-4-4-4-4-4-7-7-7-7-7-7-7-7-7-7-7-7-7-7-7-7--|-4-4-4-4-4-4-4-4-2-2-2-2-2-2-2-2-7-7-7-7-7-7-7-7-7-7-7-7-7-7-7-7--|---------------------------------5-5-5-5-5-5-5-5-5-5-5-5-5-5-5-5--|
guitar 3:
------------------------------------------------------------------|-7-7-7-5-5-5-4-4-7-7-7-5-5-5-4-4-5-5-5-5-5-5-5-5-5-5-5-5-5-5-5-5--|-4-4-4-4-4-4-4-4-4-4-4-4-4-4-4-4-4-4-4-4-4-4-4-4-4-4-4-4-4-4-4-4--|------------------------------------------------------------------|------------------------------------------------------------------|------------------------------------------------------------------|
then: guitar 1: E5/G#----------------------------E5
------------------------------------|------------------------------------|-4-4-4-4-4-4-4-4-4-4-4-4-4-4-4-4----|-2-2-2-2-2-2-2-2-2-2-2-2-2-2-2-2-2--|-x-x-x-x-x-x-x-x-x-x-x-x-x-x-x-x-2--| (let ring)-4-4-4-4-4-4-4-4-4-4-4-4-4-4-4-4-0--|
guitar 2: A5/G#----------------------------E5
------------------------------------|------------------------------------|------------------------------------|-7-7-7-7-7-7-7-7-7-7-7-7-7-7-7-7-2--|-7-7-7-7-7-7-7-7-7-7-7-7-7-7-7-7-2--| (let ring)-4-4-4-4-4-4-4-4-4-4-4-4-4-4-4-4-0--|
guitar 3 : out Verse (1:53; "Made a grave mistake..."): guitar 1 (distortion on): E5---------A5---------E5--------A5
----------------------------------------------|----------------------------------------------|-----------2-2--2--2------------2-2-----------|-2-2--2--2-2-2--2--2--2-2--2--2-2-2-x-x-x--x--|-2-2--2--2-0-0--0--0--2-2--2--2-0-0-x-x-x--x--|-0-0--0--0------------0-0--0--0-----x-x-x--x--|
guitar 2 (distortion on):
-----------------------------------------------|-----------------------------------------------|-9-9-13-14-----14-13--9-9-13-14---------14-13--|-----------7-7------------------7-7------------|-7-7-11-12-7-7-12-11--7-7-11-12-7-7-x-x-12-11--|-----------5-5------------------5-5-x-x--------|
then ("Not the first time..."): guitar 1: E5------------------A5--------------F#5--------------A5
------------------------------------------------------------------|------------------------------------------------------------------|--------------------2-2-2-2-2-2-----------------------------------|-2-2--2--2--2-2-2-2-2-2-2-2-2-2--x-x-4-4-4-4-4-4-x-x-7-7-7-7-7-7--|-2-2--2--2--2-2-2-2-0-0-0-0-0-0--x-x-4-4-4-4-4-4-x-x-7-7-7-7-7-7--|-0-0--0--0--0-0-0-0--------------x-x-2-2-2-2-2-2-x-x-5-5-5-5-5-5--|
guitar 2:
------------------------------------------------------------------|------------------------------------------------------------------|-9-9-13/14-14/16-16-----14-13-11---------12-13-9-----------14/16--|--------------------7-7----------x-x-4-4---------x-x-7-7-7--------|-7-7-11/12-12/14-14-7-7-12-11--9-x-x-4-4-12-11-7-x-x-7-7-7-12/14--|--------------------5-5----------x-x-2-2---------x-x-5-5-5--------|
then ("...risks outweigh the benefits..."): guitar 1: E5---------A5---------E5--------A5
----------------------------------------------|----------------------------------------------|-----------2-2--2--2------------2-2-----------|-2-2--2--2-2-2--2--2--2-2--2--2-2-2-x-x-x--x--|-2-2--2--2-0-0--0--0--2-2--2--2-0-0-x-x-x--x--|-0-0--0--0------------0-0--0--0-----x-x-x--x--|
guitar 2:
-----------------------------------------------|-----------------------------------------------|-9-9-13-14-----14-13--9-9-13-14---------14-13--|-----------7-7------------------7-7------------|-7-7-11-12-7-7-12-11--7-7-11-12-7-7-x-x-12-11--|-----------5-5------------------5-5-x-x--------|
then ("There's no safe hiding place..."): guitar 1: E5------------------A5---------------F#5--------------A5
-----------------------------------------------------------------|-----------------------------------------------------------------|--------------------2-2-2-2-2-2-2--------------------------------|-2-2--2--2--2-2-2-2-2-2-2-2-2-2-2-x-x-4-4-4-4-4-4-x-x-7-7-7-7-7--|-2-2--2--2--2-2-2-2-0-0-0-0-0-0-0-x-x-4-4-4-4-4-4-x-x-7-7-7-7-7--|-0-0--0--0--0-0-0-0---------------x-x-2-2-2-2-2-2-x-x-5-5-5-5-5--|
guitar 2:
---------------------------------------------------------------|---------------------------------------------------------------|-9-9-13/14-14/16-16---13/1413-11---------12-13-9---------16----|--------------------7-------------x-x-4-4---------x-x-7-7------|-7-7-11/12-12/14-14-7-11/1211--9-x-x-4-4-12-11-7-x-x-7-7-14----|--------------------5-------------x-x-2-2---------x-x-5-5------|
then: guitar 1: E5---------A5---------E5----------A5
------------------------------------------------|------------------------------------------------|-----------2-2--2--2--------------2-2-----------|-2-2--2--2-2-2--2--2--2-2--2--2---2-2-x-x-x--x--|-2-2--2--2-0-0--0--0--2-2--2--2---0-0-x-x-x--x--|-0-0--0--0------------0-0--0--0-------x-x-x--x--|
guitar 2:
-------------------------------------------------|-------------------------------------------------|-9-9-13-14-----14-16-9-9-13-14-13---------14-13--|-----------7-7--------------------7-7------------|-7-7-11-12-7-7-12-14-7-7-11-12-11-7-7-----12-11--|-----------5-5--------------------5-5-x-x--------|
then: guitar 1: E5--------------A5---------------F#5--------------A5
-------------------------------------------------------------|-------------------------------------------------------------|----------------2-2-2-2-2-2-2--------------------------------|-2-2--2--2--2-2-2-2-2-2-2-2-2-x-x-4-4-4-4-4-4-x-x-7-7-7-7-7--|-2-2--2--2--2-2-0-0-0-0-0-0-0-x-x-4-4-4-4-4-4-x-x-7-7-7-7-7--|-0-0--0--0--0-0---------------x-x-2-2-2-2-2-2-x-x-5-5-5-5-5--|
guitar 2:
--------------------------------------------------------------------|--------------------------------------------------------------------|-14-13-13-13-13-16-16-16-16-16--14-13-14-16-14-13-14-13-11-13-11-9--|--------------------------------------------------------------------|-12-11-11-11-11-14-14-14-14-14--12-11-12-14-12-11-12-11--9-11--9-7--|--------------------------------------------------------------------|
then: guitar 1: F#5---------------A5
--------------------------|--------------------------|--------------------------|-x-x-4-4-4-4-4-4---x-x-7--|-x-x-4-4-4-4-4-4---x-x-7--|-x-x-2-2-2-2-2-2---x-x-5--|
guitar 2:
-----------------------------------------------|-----------------------------------------------|-----14-13-14-16-14-16-18-16-14-13-14-13-11-9--|-----------------------------------------------|-----12-11-12-14-12-14-16-14-12-11-12-11--9-7--|-----------------------------------------------|
Interlude ("Watch advantages pass."): guitar 1 (clean): A5/G#------------A5--------------A5/G#-----------A5
------------------------------------------------------------------|------------------------------------------------------------------|------------------------------------------------------------------|-7-7-7-7-7-7-7-7-7-7-7-7-7-7-7-7-7-7-7-7-7-7-7-7-7-7-7-7-7-7-7-7--|-7-7-7-7-7-7-7-7-7-7-7-7-7-7-7-7-7-7-7-7-7-7-7-7-7-7-7-7-7-7-7-7--|-4-4-4-4-4-4-4-4-5-5-5-5-5-5-5-0-4-4-4-4-4-4-4-4-5-5-5-5-5-5-5-0--|
guitar 2 (clean):
----------------------------------------------------|----------------------------------------------------|-----------------/11-----9--------------------------|---------------------------------9---------------7--|----------------------------------------------------|----------------------------------------------------|
then ("Abrasive, difficult regret."): guitar 1 : same guitar 2: ---- ---- ---- ---- -7-- ---- then ("I can barely make the rent."): guitar 1 : same guitar 2 (lightly): (A5/G#------------A5--------------A5/G#-----------A5)
---------------------------------------------|---------------------------------------------|-11-----9-------13----------------11------9--|---------------------------------------------|--9-----7-------11-----------------9------7--|---------------------------------------------|
then ("But you came back fine..."): guitar 1 : same guitar 2 (lightly):
(A5/G#------------A5--------------A5/G#-----------A5) *start build-up------------------------------------------------------------------|------------------------------------------------------------------|-11-----9----13---11----9---------16--16--16--16--16--16--16--16--|------------------------------------------------------------------|--9-----7----11----9----7---------14--14--14--14--14--14--14--14--|------------------------------------------------------------------|
Bridge: guitar 1 (distortion on): E5--------------------F#5
-----------------------------------------------------------------------------------------|-----------------------------------------------------------------------------------------|-----------------------------------------------------------------------------------------|-2--2--2--2-2-2-2--2--4--4--4--4--4--4--4--4---6--6--6--6-6-6-6--6--7--7--7--7--7--7--7--|-2--2--2--2-2-2-2--2--4--4--4--4--4--4--4--4---6--6--6--6-6-6-6--6--7--7--7--7--7--7--7--|-0--0--0--0-0-0-0--0--2--2--2--2--2--2--2--2---4--4--4--4-4-4-4--4--5--5--5--5--5--5--5--|
guitar 2 (distortion on):
-----------------------------------------------------------------------------------------|-----------------------------------------------------------------------------------------|-11-11-11-9-9-9-16-16-16-16-16-16-16-16-16-16---11-11-11-9-9-9-16-16-16-14-13-14-13--13--|-----------------------------------------------------------------------------------------|--9--9--9-7-7-7-14-14-14-14-14-14-14-14-14-14----9--9--9-7-7-7-14-14-14-12-11-12-11--11--|-----------------------------------------------------------------------------------------|
then: guitar 1: E5--------F#5----G#5------A5
-----------------------------------|-----------------------------------|-----------------------------------|-2--2--2--4-4-4--6--6--6--7--7--7--|-2--2--2--4-4-4--6--6--6--7--7--7--|-0--0--0--2-2-2--4--4--4--5--5--5--|
guitar 2:
------------------------------------|------------------------------------|-11-9-13-11-9-14-14-14-14-14-14-14--|------------------------------------|--9-7-11--9-7-12-12-12-12-12-12-12--|------------------------------------|
then ("Watch advantages pass."): guitar 1: E5--------------F#5------------G#5------------A5
-------------------------------------------------------------------|-------------------------------------------------------------------|-------------------------------------------------------------------|-2-2--2--2--2-2-4-4--4--4--4-4-6--6--6-6-6--6-7--7--7-7-7--7-7--7--|-2-2--2--2--2-2-4-4--4--4--4-4-6--6--6-6-6--6-7--7--7-7-7--7-7--7--|-0-0--0--0--0-0-2-2--2--2--2-2-4--4--4-4-4--4-5--5--5-5-5--5-5--5--|
guitar 2:
--------------7--------------7--------------7--------------7-------|------10-9-10--------10-9-10--------10-9-10---10-9-10-9-10---10-9--|-9-11-----------9-11-----------9-11--------------------------------|-------------------------------------------------------------------|-7--9-----------7--9-----------7--9--------------------------------|-------------------------------------------------------------------|
then ("Abrasive, difficult regret."): guitars 1 & 2 : same then ("I can barely make the rent."): guitar 1: E5-------------------F#5------------------G#5-----------------A5
----------------------------------------------------------------------------------|----------------------------------------------------------------------------------|----------------------------------------------------------------------------------|-2-2-2--2-2--2-2--2--4-4-4--4-4--4-4--4---6-6-6--6-6--6-6--6--7-7-7--7-7--7-7--7--|-2-2-2--2-2--2-2--2--4-4-4--4-4--4-4--4---6-6-6--6-6--6-6--6--7-7-7--7-7--7-7--7--|-0-0-0--0-0--0-0--0--2-2-2--2-2--2-2--2---4-4-4--4-4--4-4--4--5-5-5--5-5--5-5--5--|
guitar 2:
--------------7-------------------7---------------------7-------------------7-------|-10-9-10-9-10---10-9-10-9-10-9-10---10-9---10-9-10-9-10---10-9-10-9-10-9-10---10-9--|------------------------------------------------------------------------------------|------------------------------------------------------------------------------------|------------------------------------------------------------------------------------|------------------------------------------------------------------------------------|
then ("But you came back fi-ine."): guitars 1 & 2 : same Outro ("I won't hide or turn back..."): guitar 1: E5
-------------2---2---0--
guitar 2:
------------------------------------------|-10-9-10-9-10-9-10-9-10-9-10-9-10-9-10-9--|------------------------------------------|------------------------------------------|------------------------------------------|------------------------------------------|
last time ("...take."): guitars 1 & 2: E5
-------------2---2---0--
STRUCTURE: intro.verse.interlude.bridge.outro
Tap to rate this tab
 
# A B C D E F G H I J K L M N O P Q R S T U V W X Y Z