Get Up Kids - Ten Minutes tab

First Intro:

(drums)

    then:

guitars 1 & 2 (distortion on):

B5-E5-B5-E5-F#5/G#5-E5-F#5/G#5-F#5

-----------------------------------------------------------------------4----4-----------------------------4-2--4--2---4-/-6--2---4-/-6---4---2-2--2--2---4-/-6--2---4-/-6---4-----0-----0---2-/-4--0---2-/-4---2--
then: guitars 1 & 2: B5---------E5---------B5--------E5--------F#5/G#5----E5
-----------------------------------------------------------------------------------------------------------------4--------------------4----------------------------------4---------2----------4---------2----------4-/-6-----2---2---------2----------2---------2----------4-/-6-----2-------------0--------------------0----------2-/-4-----0--
guitar 3 (keyboard):
------------------------------------------------------------------16---16---16-17-16---16---16---19-17-16---16---16---16-17-16-------16---16---------16---16---16---------16---16---16---------16-----------------------------------------------------------------------------------------------------------------------------------------------------------------------------------------------------
First Verse ("...minutes to downtown..."): guitars 1 & 2: B5--------------E5------------G#5---F#5 B5-------------E5------------G#5---F#5
-----------------------------------------------------------------------------------------------------------------------------------------------------------------------4------------------------------------------4---------------------------------------4--------------2--------------6-----4------4--------------2--------------6-----4---2--------------2--------------6-----4------2--------------2--------------6-----4------------------0--------------4-----2---------------------0--------------4-----2--
guitar 3:
--------------------------0------------------------------------------0------------------4--4--2h4--4---4--4--2h4--4---4--4--2--2---4--4--2h4--4---4--4--2h4--4---4--4--2--2-----4--4----4--4---4--4----4------4--4--4--4---4--4----4--4---4--4----4------4--4--4--4-----------------------------------------------------------------------------------------------------------------------------------------------------------------------------------------------------------------------------------------------------------------------
First Pre-Chorus ("...you there. If I had to explain it..."): guitar 1: G#5-E5-G#5-F#5--E-C#5-----------E-C#5-----------E-C#5
*(vocals in)----------------0---------------0---------------0---------------------0---------------0---------------0---------------------1--6------------1--6------------1--6---6--2---6---4---2--6------------2--6------------2--6---6--2---6---4---2--4------------2--4------------2--4---4--0---4---2---0---------------0---------------0-----
guitar 2: *(vocals in)----------------0---------------0---------------0-------------------------------0--4-4---4-4----0--4-4---4-4----0--4-4---4-4--------------------1------4-----4--1------4-----4--1------4-----4---6--2---6---4---2---------------2---------------2----------------6--2---6---4---2---------------2---------------2----------------4--0---4---2---0---------------0---------------0---------------
Second Intro: guitar 1: B5-E5-B5-E5-F#5-G#5--E5-F#5-G#5-F#5 B5-E5-B5-E5-F#5-G#5--E5-F#5-G#5-F#5
------------------------------------------------------------------------------------------------------------------------------------------------------4-----4------------------------------4-----4------------------------------4-2---4-2---4-/-6----2--4-/-6---4----4-2---4-2---4-/-6----2--4-/-6---4----2-2---2-2---4-/-6----2--4-/-6---4----2-2---2-2---4-/-6----2--4-/-6---4------0-----0---2-/-4----0--2-/-4---2------0-----0---2-/-4----0--2-/-4---2--
guitar 2:
-----------------------------------------------------------------------------------------------------------------------------------------------------11-4--11-4-------8---11------8---6---11-4--11-4-------8---11------8---6------------------------------------------------------------------------------9-2---9-2-------6----9------6---4----9-2---9-2-------6----9------6---4----------------------------------------------------------------------------
Second Verse ("...minutes to downtown..."): guitars 1 & 2: B5--------------E5------------G#5---F#5 B5-------------E5------------G#5---F#5
-----------------------------------------------------------------------------------------------------------------------------------------------------------------------4----------------------------------------------4-----4--4--------------------------4--------------2---------------------------4-4-4-4-4-4--4-----2-----2--2-----------2--------------2--------------6-----4------2-2-2-2-2-2--2-2-2-2-2-2-2--2-6-----4------------------0--------------4-----2---------------------0-0-0-0-0-0--0-4-----2--
guitar 3:
--------------------------0------------------------------------------0------------------4--4--2h4--4---4--4--2h4--4---4--4--2--2---4--4--2h4--4---4--4--2h4--4---4--4--2--2-----4--4----4--4---4--4----4------4--4--4--4---4--4----4--4---4--4----4------4--4--4--4-----------------------------------------------------------------------------------------------------------------------------------------------------------------------------------------------------------------------------------------------------------------------
Second Pre-Chorus ("...I have. If I had to explain it..."): guitar 1: G#m-E5-G#m-F#5--E-C#5-----------E-C#5------------E-C#5 A5
----------------0---------------0----------------0-----------------------------------0---------------0----------------0-----------------------------------1--6------------1--6-------------1--6-------------2---6--2---6---4---2--6------------2--6-------------2--6-------------2---6--2---6---4---2--4------------2--4-------------2--4-------------0---4--0---4---2---0---------------0----------------0-------------------
guitar 2:
----------------0---------------0----------------0----------------0-0-0-0-0-0-0-0------------------0--4-4---4-4----0---4-4---4-4----0--4-4---4-4-----4-4-0-4-4-0-4-0------------------1------4-----4--1-------4-----4--1------4-----4---2-2-2-2-2-2-2-2---6--2---6---4---2---------------2----------------2----------------2-2-2-2-2-2-2-2---6--2---6---4---2---------------2----------------2----------------0-0-0-0-0-0-0-0---4--0---4---2---0---------------0----------------0---------------------------------
First Chorus ("Pockets empty..."): guitar 1: E5-B5-E5-B5-C#5------B5 E5-B5-E5-B5-C#5-----B5
---------------------------------------------------------------------------------------------------4-----4---6-------4------4-----4---6------4---2-4--2--4---6-------4----2-4--2--4---6------4---2-2--2--2---4-------2----2-2--2--2---4------2---0----0-------------------0----0----------------
guitar 2:
---------------------------------------------------------------------------------------------------------4-----4--6-6-6-8-9-11----4-----4--6-6-6-8-9-11---2-4--2--4----------------2-4--2--4-----------------2-2--2--2--4-4-4-6-7--9--2-2--2--2--4-4-4-6-7--9---0----0-------------------0----0-------------------
then ("[It works out.(?)]"): guitar 1: A5----------------------------C#5
---------------------------------------------------------------------2-----------------------------6---2-----------------------------6---0-----------------------------4------------------------------------
guitar 2:
-0---0---4--0---0---4--0---0---0---0---4--0---0---4--0---4---4h5-4h5----4h5-4h5----4h5-4h5-4h5-4h5----4h5-4h5----4h5----------------------------------------------------------------------------------------------------------------------------------------------------------------------------------------------------------------------------------------------------
Guitar Solo: guitars 1 & 2: E5-B5-E5------B5---C#5------B5 E5-B5-------E5----B5-----C#5------B5
-----------------------------------------------------------------------------------------------------------------------------------------------------4----------4-----6-------4-------4--------------4-------6-------4----2--4--2-------4-----6-------4----2--4--------2-----4-------6-------4----2--2--2-------2-----4-------2----2--2--------2-----2-------4-------2----0-----0--------------------------0-----------0------------------------
guitar 4 (distortion on):
--------------------------------------------------------------------------------------/10-9-10-12-10-9------------------17-16-16-16---------------------------------------------------------9-9-9\6-9-9-9-8--------------13/14-13--9-9-9\6-9-9-11-13-11\9-9-9-----------------------------------------------------------------------------------------------------------------------------------------------------------------------------------------------------------------------------------------------------------------
Pre-Bridge: guitar 1: A5----------------------------C#5----------------------------B5
---------------------------------------------------------------------------------------------------------------------------------2-----------------------------6-----------------------------4---2-----------------------------6-----------------------------4---0-----------------------------4-----------------------------2------------------------------------------------------------------
guitar 2:
-0---0---4--0---0---4--0---0---0---0---4--0---0---4--0---0---0---0---0---0---0---0-----4h5-4h5----4h5-4h5----4h5-4h5-4h5-4h5----4h5-4h5----4h5-4h5-4h5-4h5-4h5-4h5-4h5-4h5--(fade out)--------------------------------------------------------------------------------------------------------------------------------------------------------------------------------------------------------------------------------------------------------------------------------------------------------------------------------------------------------
Bridge: guitar 1 (clean):
---------------------------------------------------7---------------7-----------------7-------9---9---------9-------9-------9p8---------9-----------------9---9-------------9-----7-----------------------------------------------------------9---------------7----------
guitar 2 (clean):
-------------------------------------------------------------------------------------------------------------7---------------7---------------7-----------9---9---9---9---9---9---9---9---9---9---9---9---9---9-------9---9---9-------9---9---9-------9------------------------------------------------------
then: guitar 1:
-----------------------------------------------------------------------9-8-----------9-----8-----------------9-----------------------9----------------------------------------------------------------------
guitar 2:
-------------------------------------------------------------------------------------------------------------7---------------7---------------7-----------9---9---9---9---9---9---9---9---9---9---9---9---9---9-------9---9---9-------9---9---9-------9------------------------------------------------------
then ("Sometimes, I miss..."): guitar 1:
---------------------------------------------------7---------------7-----------------7-------9---9---------9-------9-------9p8---------9-----------------9---9-------------9-----7-----------------------------------------------------------9---------------7----------
guitar 2:
-------------------------------------------------------------------------------------------------------------7---------------7---------------7-----------9---9---9---9---9---9---9---9---9---9---9---9---9---9-------9---9---9-------9---9---9-------9------------------------------------------------------
then ("...whenever I'm at home."): guitar 1:
-----------------------------------------------------------------------9-8-----------9-----8-----------------9-----------------------9----------------------------------------------------------------------
guitar 2:
-------------------------------------------------------------------------------------------------------------7---------------7---------------7-----------9---9---9---9---9---9---9---9---9---9---9---9---9---9-------9---9---9-------9---9---9-------9------------------------------------------------------
then ("I've been home all summer..."): guitar 1:
-----------------------------------------------------------------------------------------------------------------------------------------8---8---9---9---11---9---8---9---8---8---11---9---8---8---9---8-------9---9---9---9----9---9---9---9---9---9----9---9---9---9---9---9------------------------------------------------------------------------------------------------------------------------------------------
guitar 2:
---0---0---0---0---0---0--------------------------------------------4---4---5---5---7---5---7-5-4-0--4---4---5---5---4---4---4---4----------------------------------------4---4---4---4---4---4---4---4-----------------------------------------------------------------------------------------------------------------------------------------------------------------------------------------------------------
Third Pre-Chorus (bass and drums out): guitar 1 (distortion on): C#5-B5-C#5-B5--A5
*(bass and drums in)-----------------------------------------------6--4---6--4---2--8-----6--4---6--4---2--7-9---4--2---4--2---0--7-7--------------------5-5--
guitar 2 (distortion on): *(bass and drums in)-------------------------------------6--4---6--4---2---6--4---6--4---2---4--2---4--2---0--------------------
Second Chorus ("Pockets empty..."): guitar 1: E5-B5-E5-B5-C#5------B5 E5-B5-E5-B5-C#5-----B5
---------------------------------------------------------------------------------------------------4-----4---6-------4------4-----4---6------4---2-4--2--4---6-------4----2-4--2--4---6------4---2-2--2--2---4-------2----2-2--2--2---4------2---0----0-------------------0----0----------------
guitar 2:
---------------------------------------------------------------------------------------------------------4-----4--6-6-6-8-9-11----4-----4--6-6-6-8-9-11---2-4--2--4----------------2-4--2--4-----------------2-2--2--2--4-4-4-6-7--9--2-2--2--2--4-4-4-6-7--9---0----0-------------------0----0-------------------
Third Chorus ("...everything will work out..."): guitar 1: E5-----B5----E5----B5---C#5------B5 E5---B5----E5----B5---C#5---B5 A5-------E5
---------------------------------------------------------------------------------------------------------------------------------------------------------------------------------------4-----------4-----6-------4------------4-----------4-----6----4-------------------2-----4-----2-----4-----6-------4-------2----4-----2-----4-----6----4------7--------2---2-----2-----2-----2-----4-------2-------2----2-----2-----2-----4----2------7----7/9-2---0-----------0---------------------------0----------0-----------------------5----5/7-0--
guitar 2:
---------------------------------------------------------------------------------------------------------------------------------------------------------------------------------14-13-11\9--14-13-11-9--9-9-9-8-9-11---14-13-11\9--14-13-11-9--9-11-13-14--8---------------------------------------------------------------------------------------7-9------2---12-11--9\7--12-11--9-7--7-7-7-6-7--9---12-11--9\7--12-11--9-7--7--9-11-12--7-7--7/9-2------------------------------------------------------------------------------5-5--5/7-0--
Tap to rate this tab
 
# A B C D E F G H I J K L M N O P Q R S T U V W X Y Z