Ghost Brigade – Concealed Revulsions tab ver. 2

For my tab sounds correct, the tunning must be [E A C F A D] ^^ ok here we go.

Intro|--------0---------0----------1-----||------3--------3----------3--------||---2---------2---------2-----------||-0---------0--------0--------------||-----------------------------------||-----------------------------------|
|-------0------------0------------||-----3-----------3---------------||---2----------2------------------||---------------------------------||-3---------3---------------------||---------------------------------|
|--------1--------0-------------0---||------3--------3------------3------||----2--------2------------2--------||------------------------0----------||-1--------1------------------------||-----------------------------------|
|-------0---------1--------0--------||-----3--------3---------3----------||---2-------2----------2------------||-0-------0----------0--------------||-----------------------------------||-----------------------------------|
|--------0-------------------------||------3-----------3---------------||---2-----------2-----2------------||----------------------------------||-3-----------3--------------------||----------------------------------|
|-------1---------0-----------0----||-----3---------3----------3-------||---2--------2----------2----------||--------------------0-------------||-1------1-------------------------||----------------------------------|
Play this through the verses. Chorus :
|----------------------------------||----------------------------------||----------------------------------||-9-9-9-9-9-9-9-9------------------||-9-9-9-9-9-9-9-9------------------||-7-7-7-7-7-7-7-7------------------|
|-----------------------------------||-----------------------------------||-----------------------------------||-7-7-7-7-7-7-7-7-------------------||-7-7-7-7-7-7-7-7-------------------||-5-5-5-5-5-5-5-5-------------------|
|-----------------------------------||-----------------------------------||-----------------------------------||-5-5-5-5-5-5-5-5-------------------||-5-5-5-5-5-5-5-5-------------------||-3-3-3-3-3-3-3-3-------------------|
|-----------------------------------||-----------------------------------||-----------------------------------||-3-3-3-3-3-3-3-3-------------------||-3-3-3-3-3-3-3-3-------------------||-1-1-1-1-1-1-1-1-------------------|
Play this 2 times when it's the chorus. Bridge when he says "I am an empty frame" NOTE : All the notes here are on the E
E|4-3-0-0-2-3-2-0-0-1-4-3-2-3-0-0-0-0-4-3-0-0-3-2-3-0-0-1-4-3-3-2-2-4-3-0-0-3-2-3-0-0-1-4-3-2-3-1/4-4-3-0-0-0-1-4-3-2-3-4-3-0-0-3-2-3-0-0-1-4-3-2-3-0-0-0-0-4-3-0-0-3-2-3-0-0-1-4-3-0-1-2-1-2-0-0-3-2-3-0-0-1-4-3-2-3-4-1/4-4-3-0-0-0-1-4-3-2-3-3-2-2-2-2-3-0-0-1-0-0-1|
It's tabbed by ear so if there is mistakes correct me ^^
Please rate this tab:
x1.0