Ghoul - Into The Catacombs tab

Ghoul -- Into the Catacombs
tabbed by Corbin Fowler

Intro rythmn|-------------------||--------0----------||------3---3--------||----5-------5------||--7-----------7----||0------------------| x4
Very lightly distorted lead over intro|------------------------------------||------------------------------------||------------------------------------||------------------------------------||3~~---3-5-6~~-----1-----1~0---------||------------------------------------| x4
Riff 2 tapping lead|----------------------------------------------------------------------------||----------------------------------------------------------------------------|
|t16p12p9t16p12p9t16p12p9t16p12p9t16p12p9t16p12p9t17p12p9t17p12p9t17p12p9t16p|----------------------------------------------------------------------------||----------------------------------------------------------------------------||----------------------------------------------------------------------------|
-----------------------------------------------------------------------------|-----------------------------------------------------------------------------|
-12p9t16p12p9t16p12p9t16p12p9t16p12p9t16p12p9t16p12p9t16p12p9t16p12p9t17p12p9-----------------------------------------------------------------------------|-----------------------------------------------------------------------------|-----------------------------------------------------------------------------|
---------------------------------------------|---------------------------------------------|-t17p12p9t17p12p9t16p12p9t16p12p9t16p12p9----|---------------------------------------------|---------------------------------------------|---------------------------------------------| x4
Riff 3 Lead|-----------------------------------------------------------------||-----------------------------------------------------------------||------3-4-3-----------3-4-3-----------3-4-3-----------3-4-3------||----5-------5-------5-------5-------5-------5-------5-------5----||--7-----------7---7-----------7---7-----------7---7-----------7--||0---------------0---------------0---------------0----------------| continued->
----------------------------------------------------------------------------|------3-4-3-----------3-4-3-----------3-4-3-----------3-4-3-----------------|----5-------5-------5-------5-------5-------5-------5-------5---------------|--7-----------7---7-----------7---7-----------7---7-----------7------4b5----|0---------------0---------------0---------------0---------------3--33-------|
------------------------------------------------------------------------------|------------------------------------------------------------------------------|------------3-4-3-----------3-4-3-----------------------------3-4-3-----------|----------5-------5-------5-------5-------------------------5-------5-------5-|4445~~--7-----------7---7-----------7------4b5----4445----7-----------7---7---|------0---------------0---------------3--33-------------0---------------0-----|
--------------|--------------|-3-4-3--------|-------7------|---------5----|--------------| x1
Riff 4 Lead|--------------||--------------||3/403033/4----||--------------||--------------||--------------| x16
Riff 5|-------------------------------||-------------------------------||-------------------------------||-------------------------------||---2--1--1h2p1----2--1---1-----||000-00-00-----3000-00-003-3----| x4
|-----------------------------------------||-----------------------------------------||12~~~------------5~~~------8~~~-----9\---||-----------------------------------------||-----------------------------------------||-----------------------------------------| x1
|-------------------------------||-------------------------------||-------------------------------||-------------------------------||---2--1--1h2p1----2--1---1-----||000-00-00-----3000-00-003-3----| x1
|---------------------------------------------||---------12~~~-----------------12b1312b1312~~||9~~~----------------10~~~--------------------||---------------------------------------------||---------------------------------------------||---------------------------------------------|
|-------------------------------||-------------------------------||-------------------------------||-------------------------------||---2--1--1h2p1----2--1---1-----||000-00-00-----3000-00-003-3----| x2
|-----------------------------------------||-----------------------------------------||12~~~------------5~~~------8~~~-----9\---||-----------------------------------------||-----------------------------------------||-----------------------------------------| x1
|-------------------------------||-------------------------------||-------------------------------||-------------------------------||---2--1--1h2p1----2--1---1-----||000-00-00-----3000-00-003-3----| x1
|---------------------------------------------||---------12~~~-----------------12b1312b1312~~||9~~~----------------10~~~--------------------||---------------------------------------------||---------------------------------------------||---------------------------------------------|
|-------------------------------||-------------------------------||-------------------------------||-------------------------------||---2--1--1h2p1----2--1---1-----||000-00-00-----3000-00-003-3----| x4
Riff 6 transition into riff 7|-----------------------------------||-----------------------------------||-----------------------------------||----3-3-----4-4-----5-5-----6-6----||----1-1-----2-2-----3-3-----4-4----||0320----0320----0320----0320-------|
Riff 7|---------------------------------------------------------------------||---------------------------------------------------------------------||12--1111--99/1513b15-13b15-13b15-12--1111--99/1614b16-14b16-14b16----||---------------------------------------------------------------------||---------------------------------------------------------------------||---------------------------------------------------------------------| x4
Riff 8|----------------------------------------||----------------------------------------||----------------------------------------||----------------------------------------||2p1--1-1-2p1--2-2-2p1--1-1-2p1-----1----||---32-------32-------32-------32023-----| x4
Riff 9|-------------------------------------------------||-------------------------------------------------||-------------------------------------------------||-----------------------------------9------999----||-----------------------------------7------777----||43105420653076408750986010970111080--------------|
That's it.
Tap to rate this tab
 
# A B C D E F G H I J K L M N O P Q R S T U V W X Y Z