Gipsy Kings - El Mariachi Desperado Theme tab

Hey my name is Marko and this is El Mariachi Desperado Theme. 
I think the song goes like this ,it's at least what I hear.



Intro

E||-----------------------|--7--7----7--7----8---7----7-------|B||--------------------8--|-----8----8--8----10--8----8-------|G||-----------------9-----|------------------------------9----|D||--------------9--------|-----------------------------------|A||-----------------------|-----------------------------------|E||-----------------------|-----------------------------------|
--8---7----7-------5-----------|--5--5----5--5----7--5----5--5--7--|--10--8----8-------7-----------|--7--7----7--7----8--7----7--7--8--|--------------9-------------8--|-----------------------------------|-------------------------------|-----------------------------------|-------------------------------|-----------------------------------|-------------------------------|-----------------------------------|
----5--5----2--3------------|----7--7----4--5------------|----------------------------|----------------------------|----------------------------|
Verse 1: Em B7 Soy un hombre muy honrado, Que me gusta lo mejor Em A mujeres no me faltan, Ni al dinero, ni el amor. Verse 2: Em B7 ...En mi caballo, Por la sierra yo me voy Em Las estrellas y la luna, Ellas me dicen donde voy. Chrous: Am Em Ay, ay, ay, ay B7 Em Ay, ay, mi amor Am Em Ay, mi morena B7 Em De mi corazon (Repeate Intro.) Verse 3: Em B7 Me gusta tocar guitarra, me gusta cantar el sol Em Mariachi me acompana, quando canto my cancion. Verse 4: Em B7 Me gustan tomar mis copas, aguardiente es lo mejor Em Tanbien la tequilla blanca, con cu sal le da sabor. Chrous: Am Em Ay, ay, ay, ay B7 Em Ay, ay, mi amor Am Em Ay, mi morena B7 Em De mi corazon *************************************** Solo -good luck with this :)
--------------------12--------------------|--5----12----8--12------12--8--12--0--12--|------------------------------------------|------------------------------------------|------------------------------------------|------------------------------------------|
--11---------------------11---------------------|------12--10--12--0--12------12--10--12--0--12--|------------------------------------------------|------------------------------------------------|------------------------------------------------|------------------------------------------------|
--12--------------------12--------------------|------12--8--12--0--12------12--8--12--0--12--|----------------------------------------------|----------------------------------------------|----------------------------------------------|----------------------------------------------|
--11-----------------11-----------------------|------12--10--12--0------10--12--0----10--12--|----------------------------------------------|----------------------------------------------|----------------------------------------------|----------------------------------------------|
-----12------------12------------12---------|--0------8--12--0------8--12--0------8--12--|--------------------------------------------|--------------------------------------------|--------------------------------------------|--------------------------------------------|
--10------10--8------8--7-----7--5-----7--|------12---------10--------8--------7-----|------------------------------------------|------------------------------------------|------------------------------------------|------------------------------------------|
--3-----3--2-----2--0-----0-----------|---------------------------------------|-----5--------3--------3-----3--0--1--|--0----0-----0--1-0--------------------|--------------------------------------|----------2---------2-0----2-0---------|--------------------------------------|------------------------4------4-2-0---|--------------------------------------|-------------------------------------3-|--------------------------------------|---------------------------------------|
-------------------------|---------------------------|---------------0----0----|--4--5--7--------0----0----|-------------------------|---------------------------|-------------------------|---------------------------|--2----------------------|---------------------------|-------------------------|---------------------------|
---------------------------|--------------7--5--3--2--|--0----------------|--5--7--8--------0----0----|--4--5--7--0--------------|-------------------|---------------------------|--------------8--6--4--2--|--0----------------|---------------------------|--------------------------|-------------------|---------------------------|--------------------------|-------------------|---------------------------|--------------------------|-------------------|
N.C. (No Chords) Me gusta tocar guitarra, me gusta cantar el sol Em Mariachi me acompana, quando canto my cancion. Verse 6: Em B7 Me gustan tomar mis copas, aguardiente es lo mejor Em Tanbien la tequilla blanca, con cu sal le da sabor. Chrous: Am Em Ay, ay, ay, ay B7 Em Ay, ay, mi amor Am Em Ay, mi morena B7 Em De mi corazon Am Em Ay, ay, ay, ay B7 Em Ay, ay, mi amor Am Em Ay, mi morena B7 Em ******************************************* This is the whole song. if you have any comments e-mail me at shcot90@hotmail.com
Tap to rate this tab
 
# A B C D E F G H I J K L M N O P Q R S T U V W X Y Z