Girls Generation - Beautiful Stranger tab

Tuning : Drop C# (C#,G#,C#,F#,A#,D#)

Intro

D#|-----------------------|A#|-----------------------|F#|-----------------------|C#|-----------------------|x4 (These could be harmonics, but I couldn't find the fret)G#|-----------------------|C#|15-15-15-15-15-15-15-15|
Verse 1
|----------------||----------------||----------------||12--12--12-12-12|x16 (Can play harmonics here)|----------------||----------------|
|--------------------||--------------------||--------------------||--------------------|x4|-------5------------||-0---0---0-6---0-5-3|
|----------------||----------------||----------------||3333333322221111|x1|3333333322221111||3333333322221111|
Chorus
|----------------------------------------------------------------||----------------------------------------------------------------||--------33333333--------55555555--------333333337777777755555555|
|5555555533333333333333335555555555555555333333337777777755555555|x1|5555555511111111333333333333333355555555111111115555555533333333||55555555--------33333333--------55555555------------------------|
|--------------------||--------------------||--------------------||--------------------|x4|-------5------------||-0---0---0-6---0-5-3|
Verse 2
|----------------||----------------||----------------||12--12--12-12-12|x16|----------------||----------------|
|--------------------||--------------------||--------------------||--------------------|x4|-------5------------||-0---0---0-6---0-5-3|
|----------------||----------------||----------------||3333333322221111|x1|3333333322221111||3333333322221111|
Chorus
|----------------------------------------------------------------||----------------------------------------------------------------||--------33333333--------55555555--------333333337777777755555555|
|5555555533333333333333335555555555555555333333337777777755555555|x1|5555555511111111333333333333333355555555111111115555555533333333||55555555--------33333333--------55555555------------------------|
Bridge
|---------------------------------------||---------------------------------------||---------------------------------------||5-5---5/8-8---8/12-12---12-------------|x2|5-5---5/8-8---8/12-12---12-------------||5-5---5/8-8---8/12-12---12\333333333333|
|--------------------||--------------------||--------------------||--------------------|x2|-------5------------||-0---0---0-6---0-5-3|
Chorus
|----------------------------------------------------------------||----------------------------------------------------------------||--------33333333--------55555555--------333333337777777755555555|
|5555555533333333333333335555555555555555333333337777777755555555|x2|5555555511111111333333333333333355555555111111115555555533333333||55555555--------33333333--------55555555------------------------|
Outro
|---------------------|--|-||---------------------|--|-||---------------------|--|-||---------------------|x7|0|x1|-------5-------------|--|0||-0---0---0-6---0-5-3-|--|0|
Tap to rate this tab
 
# A B C D E F G H I J K L M N O P Q R S T U V W X Y Z