God Forbid – Antihero tab

Solo 1
                                                           
D||--------------------------------|----------------------|A||--------------------------------|----------------------|F||--------------------------------|----------------------|C||------------------14----15------|----------------------|G||----------------------------14--|----15--15~-----------|D||--0-0-0-0-0-0-0-0---------------|----------------------|
----------------------------------|----------------------|----------------------------------|----------------------|------------------14--13----------|----------------------|--------------------------15--14--|----21--21~-----------|----------------------------------|----------------------|--0-0-0-0-0-0-0-0-----------------|----------------------|
------------------19--16----------|----------------------|--------------------------17------|----------------------|------------------------------16--|----17--17~-----------|----------------------------------|----------------------|----------------------------------|----------------------|--0-0-0-0-0-0-0-0-----------------|----------------------|
-------------------------------|----------------------|-------------------------------|----------------------|-------------------------------|----------------------|------------------9----10------|----------------------|---------------------------11--|----12--12b-----------|--0-0-0-0-0-0-0-0--------------|----------------------|
--------------------------------|------------------------|--------------------------------|------------------------|--------------------------------|------------------------|--10----10--10--12--14--12--12--|------------10--12--14--|--------------------------------|------------------------|--------------------------------|------------------------|
------------------------------------|----------------------|------------------------------------|------------------13--|--12--14-12-10--12--14--16--16--16--|------------14--------|------------------------------------|----------------------|------------------------------------|----------------------|------------------------------------|----------------------|
--------------------------|------------------|--17b-------17b---17b-17r-|--15b-------15r---13------|------------------|--------------------------|----------------------14--|------------------|--------------------------|--------------------------|------------------|--------------------------|--------------------------|------------------|--------------------------|--------------------------|------------------|--------------------------|
Solo 2 ------17~------------|--------------------------15----------------------|---------------------|-----------------------------17-15----------------|----------------9/---|--17-16-14-------------------------17-14----------|---------------------|-----------17-14-17-14-------------------17-17-17-|---------------------|-----------------------17-------------------------|---------------------|--------------------------------------------------|
--17-12-------10----------------|--------15-12----12-------------|--------------------10~---------|--------------------------------|--------------------------------|--------------------------------|
-----------------------------------------------15-|--------------------------------------15-17-18----|--------------------------------16-17-------------|--------------------15----17-19-------------------|--15-17-19-15-17-19----17-------------------------|--------------------------------------------------|
--17-15----17-------------------|--------18----15-13-------------|--------------------12~---------|--------------------------------|--------------------------------|--------------------------------|
--17----------15----15----------19-15-19-15----15-|-----17-14-17----17----17-14-17-------------17----|--------------------------------------------------|--------------------------------------------------|--------------------------------------------------|--------------------------------------------------|
--20-17----------------------------------------|--------18-17-18-17----------------------------|--------------------19-17-19-17-16-17-16-16~---|-----------------------------------------------|-----------------------------------------------|-----------------------------------------------|
--8-0-0-10-0-0-12-0-0-13-0-0-15-0-17-0-|--19-0-0-20-0-0-22------22/---||---------------------------------------|------------------------------||---------------------------------------|------------------------------||---------------------------------------|------------------------------||---------------------------------------|------------------------------||---------------------------------------|------------------------------||
Please rate this tab:
x1.0