Godsmack – Godsmack tab

Godsmack
---------

album- Godsmack
year-  1998


contents
---------

1.  Moon Baby
2.  Whatever
3.  Keep Away
4.  Time Bomb
5.  Bad Religion
6.  Immune
7.  Someone In London
8.  Get Up Get Out
9.  Now Or Never
10. Stress
11. Situation
12. Voodoo



1. Moon Baby
-------------

Drop D (D A D G B E)


Intro    gtrs 1 & 2

 /-----------------------------2x---------------------------\

|-------------------------|----------------------------------||-------------------------|----------------------------------||-------------------------|----------------------------------||-------------------------|----------------------------------||4-4-4-4---4-4-4---0-2-2--|4-4-4-4---4-4-4/5--5/7--7\5--5\4--||4-4-4-4---4-4-4---0-2-2--|4-4-4-4---4-4-4/5--5/7--7\5--5\4--|
Verse 1 /-----------------------------4x---------------------------\
|-------------------------|----------------------------------||-------------------------|----------------------------------||-------------------------|----------------------------------||-------------------------|----------------------------------||4-4-4-4---4-4-4---0-2-2--|4-4-4-4---4-4-4/5--5/7--7\5--5\4--||4-4-4-4---4-4-4---0-2-2--|4-4-4-4---4-4-4/5--5/7--7\5--5\4--|
Pre-Chorus 1
|---------------------------------|-------------------------------||---------------------------------|-------------------------------||--------7/8-------------7/8\7----|--------6/7--------------------||--------x---------------x--------|--------6/7--------------------||0--0-0--5/6--0---0-0-0--5/6\5p0--|4--4-4--4/5--4-4---4-4-4-4--2--||0--0-0-------0---0-0-0-----------|4--4-4-------4-4---4-4-4-4--2--|
|----------------------------------|-------------------------------||----------------------------------|-------------------------------||--------7/8--------------7/8\7----|--------6/7--------------------||--------x----------------x--------|--------6/7--------------------||0--0-0--5/6--0-0--0-0-0--5/6\5p0--|4--4-4--4/5--4-4---4-4-4-4--2--||0--0-0-------0-0--0-0-0-----------|4--4-4-------4-4---4-4-4-4--2--|
Chorus 1 /----------2x-----------\
|-------------------------|-------------------------|------------------||-------------------------|-------------------------|------------------||-------------------------|-------------------------|------------------||-------------------------|-------------------------|------------------||0-0-0-0---0-0-0---0-2-2--|4-4-4-4---4-4-4---0-2-2--|4-4-4-4---4-4-4---||0-0-0-0---0-0-0---0-2-2--|4-4-4-4---4-4-4---0-2-2--|4-4-4-4---4-4-4---|
Verse 2 /-----------------------------4x---------------------------\
|-------------------------|----------------------------------||-------------------------|----------------------------------||-------------------------|----------------------------------||-------------------------|----------------------------------||4-4-4-4---4-4-4---0-2-2--|4-4-4-4---4-4-4/5--5/7--7\5--5\4--||4-4-4-4---4-4-4---0-2-2--|4-4-4-4---4-4-4/5--5/7--7\5--5\4--|
Pre-Chorus 2
|---------------------------------|-------------------------------| ---|---------------------------------|-------------------------------| ||--------7/8-------------7/8\7----|--------6/7--------------------| ||--------x---------------x--------|--------6/7--------------------| ||0--0-0--5/6--0---0-0-0--5/6\5p0--|4--4-4--4/5--4-4---4-4-4-4--2--| ||0--0-0-------0---0-0-0-----------|4--4-4-------4-4---4-4-4-4--2--| 2x
|
|----------------------------------|-------------------------------| ||----------------------------------|-------------------------------| ||--------7/8--------------7/8\7----|--------6/7--------------------| ||--------x----------------x--------|--------6/7--------------------| ||0--0-0--5/6--0-0--0-0-0--5/6\5p0--|4--4-4--4/5--4-4---4-4-4-4--2--| ||0--0-0-------0-0--0-0-0-----------|4--4-4-------4-4---4-4-4-4--2--| ---
Chorus 2 /----------2x-----------\
|-------------------------|-------------------------||-------------------------|-------------------------||-------------------------|-------------------------||-------------------------|-------------------------||0-0-0-0---0-0-0---0-2-2--|4-4-4-4---4-4-4---0-2-2--||0-0-0-0---0-0-0---0-2-2--|4-4-4-4---4-4-4---0-2-2--|
|-------------------------------------||-------------------------------------||-------------------11-11\9--9-9-9\7--||--------------------x--x----x-x-x----||4-4-4-4-4---4-4-4---9--9\7--7-7-7\5--||4-4-4-4-4---4-4-4--------------------|
|-------------------------|-------------------------||-------------------------|-------------------------||-------------------------|-------------------------||-------------------------|-------------------------||0-0-0-0---0-0-0---0-2-2--|0-0-0-0---0-0-0---0h2-2--||0-0-0-0---0-0-0---0-2-2--|0-0-0-0---0-0-0---0h2-2--|
|-------------------------|-------------------------|-------------||-------------------------|-------------------------|-------------||-------------------------|-------------------------|-------------||-------------------------|-------------------------|-------------||4-4-4-4---4-4-4---0h2-2--|4-4-4-4---4-4-4---0h2-2--|0------------||4-4-4-4---4-4-4---0h2-2--|4-4-4-4---4-4-4---0h2-2--|0------------|
Interlude gtr 1
|----------------------------|----------------------------||----------------------------|----------------------------||----------------------------|----------------------------||----------------------------|----------------------------||-/9-------------------------|----------------------------||----------------------------|----------------------------|
gtr 2
|----------------------------|----------------------------||----------------------------|----------------------------||----------------------------|----------------------------||----------------------------|----------------------------||----------------------------|----------------------------||----------------------------|0-4---0-4---0-4---0-4---4---| PM-------------------|
gtr 1
|------------------------|------------------------||------------------------|------------------------||------------------------|------------------------||------------------------|------------------------||-(9)--------------------|5-4---5-4---5-4---5-4---||------------------------|------------------------|
gtr 2
|------------------------|------------------------||------------------------|------------------------||------------------------|------------------------||------------------------|------------------------||------------------------|------------------------||0-4---0-4---0-4---0-4---|0-4---0-4---0-4---0-4---|
gtrs 1 & 2 /--------------8x------------\
|------------------------------||------------------------------||------------------------------||------------------------------||0-4---0-4---0-4---0-4p0-4^r---||0-4---0-4---0-4---0-4p0-4^r---|
gtr 1 w/ wah
|--------------------------------------------------| ---|--------------------------------------------------| ||-/11-11-11-11-11-11-11-11-11-11-11-11-11-11-11-11\| ||--x---x--x--x--x--x--x--x--x--x--x--x--x--x--x--x-| ||-/9---9--9--9--9--9--9--9--9--9--9--9--9--9--9--9\| ||--------------------------------------------------| |
|
|-----------------------------------| ||-----------------------------------| ||-\9-9-9-9-9-9-9-9-9-9-9-9-9-9-9-9--| ||--x-x-x-x-x-x-x-x-x-x-x-x-x-x-x-x--| ||-\7-7-7-7-7-7-7-7-7-7-7-7-7-7-7-7--| ||-----------------------------------| 2x
| wah off | | /--------------2x------------\ | |
|------------------------------| ||------------------------------| ||------------------------------| ||------------------------------| ||0-4---0-4---0-4---0-4p0-4^r---| ||0-4---0-4---0-4---0-4p0-4^r---| ---
|-----------------|-------------------------||-----5----5--5---|5---5----5---5-----------||-----4----4--4---|4---4----4---4-----------||2----2----2--2---|2---2----2---2-----------||2----2----2--2---|2---2----2---2-----------||2----2----2--2---|2---2----2---2---2/14\---|
/--------------2x------------\
|------------------------------|-----------------------------||------------------------------|-----------------------------||------------------------------|-----------------------------||------------------------------|-----------------------------||------------------------------|-----------------------------||0-4---0-4---0-4---0-4---4^r---|0-4---0-4---0-4---0-4p0-4^r--| PM-------------------|
|------------------------------||------------------------------||------------------------------||------------------------------||0-4---0-4---0-4---0-4p0-4^r---||0-4---0-4---0-4---0-4p0-4^r---|
|--------------------------------------------------||--------------------------------------------------||-/11-11-11-11-11-11-11-11-11-11-11-11-11-11-11-11\||--x---x--x--x--x--x--x--x--x--x--x--x--x--x--x--x-||-/9---9--9--9--9--9--9--9--9--9--9--9--9--9--9--9\||--------------------------------------------------|
|-----------------------------------||-----------------------------------||-\9-9-9-9-9-9-9-9-9-9-9-9-9-9-9-9--||--x-x-x-x-x-x-x-x-x-x-x-x-x-x-x-x--||-\7-7-7-7-7-7-7-7-7-7-7-7-7-7-7-7--||-----------------------------------|
wah off
|------------------------------|-----------------------||------------------------------|-----------------------||------------------------------|-----------------------||------------------------------|-----------------------||0-4---0-4---0-4---0-4p0-4^r---|0-4---0-4---0-4---0-4--||0-4---0-4---0-4---0-4p0-4^r---|0-4---0-4---0-4---0-4--|
/--------------8x------------\
|------------------------------||------------------------------||------------------------------||------------------------------||0-4---0-4---0-4---0-4p0-4^r---||0-4---0-4---0-4---0-4p0-4^r---|
|--------------------------------------------------| ---|--------------------------------------------------| ||-/11-11-11-11-11-11-11-11-11-11-11-11-11-11-11-11\| ||--x---x--x--x--x--x--x--x--x--x--x--x--x--x--x--x-| ||-/9---9--9--9--9--9--9--9--9--9--9--9--9--9--9--9\| ||--------------------------------------------------| |
|
|-----------------------------------| 2x|-----------------------------------| ||-\9-9-9-9-9-9-9-9-9-9-9-9-9-9-9-9/-| ||--x-x-x-x-x-x-x-x-x-x-x-x-x-x-x-x--| ||-\7-7-7-7-7-7-7-7-7-7-7-7-7-7-7-7/-| ||-----------------------------------| ---
|--------------------------------------------------||--------------------------------------------------||-/11-11-11-11-11-11-11-11-11-11-11-11-11-11-11-11\||--x---x--x--x--x--x--x--x--x--x--x--x--x--x--x--x-||-/9---9--9--9--9--9--9--9--9--9--9--9--9--9--9--9\||--------------------------------------------------|
|-----------------------------------||-----------------------------------||-\9-9-9-9-9-9-9-9-9-9-9-9-9-9-9-9--||--x-x-x-x-x-x-x-x-x-x-x-x-x-x-x-x--||-\7-7-7-7-7-7-7-7-7-7-7-7-7-7-7-7--||-----------------------------------|
|------------------------------|-----------------------|------------||------------------------------|-----------------------|------------||------------------------------|-----------------------|--sound-----||------------------------------|-----------------------|--effects---||0-4---0-4---0-4---0-4p0-4^r---|0-4---0-4---0-4---0-4--|------------||0-4---0-4---0-4---0-4p0-4^r---|0-4---0-4---0-4---0-4--|------------|
Tab Legend ----------- PM palm mute / slide up \ slide down x muted string p pull off ^ bend half step r release 2. Whatever ------------ Drop C (C G C F A D) Intro gtrs 1 & 2 /---------7x---------\
|--------------|-------------|----------------------|--------------||--------------|-------------|--------10---10---10--|--------------||--sound-------|-------------|--------13---13---13--|--------------||--effects-----|------5------|----------------------|--------------||--------------|------5------|0-0-------------------|0-0-----------||--------------|------5------|0-0-------------------|0-0-----------| vol. PM-| PM-| swell
Verse 1 /-------8x-----------\
|----------------------||--------10---10---10--||--------13---13---13--||----------------------||0-0-------------------||0-0-------------------| PM-|
Pre-Chorus 1
|-------------------------------------|-----------------------------------||-------------------------------------|-----------------------------------||-----------7-------------------------|---------7---------5---------------||0----------7----------6--------------|0--------7---------5----5-5---3-3--||0----------5----------6------6-6-----|0--------5---------3----5-5---3-3--||0---------------------6------6-6-----|0-----------------------5-5---3-3--| PM-|
Chorus 1
|-----------------|-----------------|-----------------|-------------||-----------------|-----------------|-----------------|-------------||-----------------|-----------------|-----------------|-------------||0-0---6---5---3--|0-0---6---5---3--|0-0---6---5---3--|-------------||0-0---6---5---3--|0-0---6---5---3--|0-0---6---5---3--|0-0----------||0-0---6---5---3--|0-0---6---5---3--|0-0---6---5---3--|0-0----------|
Interlude /-------4x-----------\
|----------------------||--------10---10---10--||--------13---13---13--||----------------------||0-0-------------------||0-0-------------------| PM-|
Verse 2 /-------7x-----------\
|----------------------|---------------------------||--------10---10---10--|---------10----------------||--------13---13---13--|---------13----------------||----------------------|---------------------------||0-0-------------------|0-0--------------5--3---2--||0-0-------------------|0-0--------------5--3---2--| PM-| PM PM------|
Pre-Chorus 2 /-----------------------------------2x----------------------------------\
|-------------------------------------|-----------------------------------||-------------------------------------|-----------------------------------||-----------7-------------------------|---------7---------5---------------||0----------7----------6--------------|0--------7---------5----5-5---3-3--||0----------5----------6------6-6-----|0--------5---------3----5-5---3-3--||0---------------------6------6-6-----|0-----------------------5-5---3-3--| PM-|
Chorus 2
|-----------------|-----------------|-----------------|----------------||-----------------|-----------------|-----------------|----------------||-----------------|-----------------|-----------------|----------------||0-0---6---5---3--|0-0---6---5---3--|0-0---6---5---3--|----3--3--3--3--||0-0---6---5---3--|0-0---6---5---3--|0-0---6---5---3--|----3--3--3--3--||0-0---6---5---3--|0-0---6---5---3--|0-0---6---5---3--|0---3--3--3--3--|
gtr 1
|-----------------|-----------------|-----------------|-------------------||-----------------|-----------------|-----------------|-------------------||-----------------|-----------------|-----------------|-------------------||0-0---6---5---3--|0-0---6---5---3--|0-0---6---5---3--|----3---3---3---3--||0-0---6---5---3--|0-0---6---5---3--|0-0---6---5---3--|----3---3---3---3--||0-0---6---5---3--|0-0---6---5---3--|0-0---6---5---3--|0---3---3---3---3--|
gtr 2 w/ wah
|-----------------|-----------------|-----------------||-----------------|-----------------|-----------------||7----13--12--10--|7----13--12--10--|7----13--12--10--||x-----x---x---x--|x-----x---x---x--|x-----x---x---x--||5----11--10---8--|5----11--10---8--|5----11--10---8--||-----------------|-----------------|-----------------|
wah off
|--------------------------------||--------------------------------||x-x-10--x-x-10--x-x-10--x-x-10--||x-x-10--x-x-10--x-x-10--x-x-10--||x-x--8--x-x--8--x-x--8--x-x--8--||--------------------------------|
gtr 1
|--------------||--------------||--------------||--------------||--------------||0-0-----------||0-0-----------| PM-|
gtr 2
|--------------||--------------||7-7-----------||7-7-----------||5-5-----------||--------------|
Bridge gtr 1 & 2 /----------------------2x---------------------\
|-----------|-----------|-----------|-----------||-----------|-----------|-----------|-----------||-----------|-----------|-----------|-----------||0----------|0----------|0----------|0----------||0--0-0-----|0--0-0-----|0--0-0-----|0--0-0-----||0--0-0-----|0--0-0-----|0--0-0-----|0--0-0-----| PM-| PM-| PM-| PM-|
Chorus 3
|-----------------|-----------------|-----------------|----------------||-----------------|-----------------|-----------------|----------------||-----------------|-----------------|-----------------|----------------||0-0---6---5---3--|0-0---6---5---3--|0-0---6---5---3--|----3--3--3--3--||0-0---6---5---3--|0-0---6---5---3--|0-0---6---5---3--|----3--3--3--3--||0-0---6---5---3--|0-0---6---5---3--|0-0---6---5---3--|0---3--3--3--3--|
gtr 1
|-----------------|-----------------|-----------------|-------------------||-----------------|-----------------|-----------------|-------------------||-----------------|-----------------|-----------------|-------------------||0-0---6---5---3--|0-0---6---5---3--|0-0---6---5---3--|----3---3---3---3--||0-0---6---5---3--|0-0---6---5---3--|0-0---6---5---3--|----3---3---3---3--||0-0---6---5---3--|0-0---6---5---3--|0-0---6---5---3--|0---3---3---3---3--|
gtr 2 w/ wah
|-----------------|-----------------|-----------------||-----------------|-----------------|-----------------||7----13--12--10--|7----13--12--10--|7----13--12--10--||x-----x---x---x--|x-----x---x---x--|x-----x---x---x--||5----11--10---8--|5----11--10---8--|5----11--10---8--||-----------------|-----------------|-----------------|
|--------------------------------||--------------------------------||x-x-10--x-x-10--x-x-10--x-x-10--||x-x-10--x-x-10--x-x-10--x-x-10--||x-x--8--x-x--8--x-x--8--x-x--8--||--------------------------------|
Outro gtrs 1 & 2 /----------7x--------\
|----------------------|--------------||--------10---10---10--|--------------||--------13---13---13--|--------------||----------------------|--------------||0-0-------------------|0-0-----------||0-0-------------------|0-0-----------| PM-| PM-|
Tab Legend ----------- PM palm mute x muted string 3. Keep Away ------------- Drop D (D A D G B E) Intro gtr 1 /------------4x-------------\
|-----------------------------||-----------------------------||7--7-7--7-7--7-7--7-7-7-7-7--||x--x-x--x-x--x-x--x-x-x-x-x--||5--5-5--5-5--5-5--5-5-5-5-5--||-----------------------------|
gtrs 1 & 2 /-------------------------3x------------------------\
|----------------------|------------------------------||----------------------|------------------------------||----------------------|------------------------------||0--0---0h3-3-3-3-3--3-|3/5-5--5--5-5-5/6-6-6-6-3--0--||0--0---0h3-3-3-3-3--3-|3/5-5--5--5-5-5/6-6-6-6-3--0--||0--0---0h3-3-3-3-3--3-|3/5-5--5--5-5-5/6-6-6-6-3--0--|
|----------------------|-----------------------------------||----------------------|-----------------------------------||----------------------|-----------------------------------||0--0---0h3-3-3-3-3--3-|x-x--5-5-5--5--5-5-5/6-6-6-6-3--0--||0--0---0h3-3-3-3-3--3-|x-x--5-5-5--5--5-5-5/6-6-6-6-3--0--||0--0---0h3-3-3-3-3--3-|x-x--5-5-5--5--5-5-5/6-6-6-6-3--0--|
Verse 1 /---------------------------5x-------------------------\
|----------------------|---------------------------------||----------------------|---------------------------------||----------------------|---------------------------------||0--0---0h3-3-3-3-3--3-|x-x--5-5--5--5-5-5/6-6-6-6-3--0--||0--0---0h3-3-3-3-3--3-|x-x--5-5--5--5-5-5/6-6-6-6-3--0--||0--0---0h3-3-3-3-3--3-|x-x--5-5--5--5-5-5/6-6-6-6-3--0--|
|----------------------|------------------------------||----------------------|------------------------------||----------------------|------------------------------||0--0---0h3-3-3-3-3--3-|x-x--5-5--5--5-5-5/6-6-6-6-3--||0--0---0h3-3-3-3-3--3-|x-x--5-5--5--5-5-5/6-6-6-6-3--||0--0---0h3-3-3-3-3--3-|x-x--5-5--5--5-5-5/6-6-6-6-3--|
Chorus 1
|-------------------------|-------------------------||-------------------------|-------------------------||7---7---5--5-5-5-5-5-5-5-|5--2---2/3-3-3-3-3-3-x---||7---7---5--5-5-5-5-5-5-5-|5--2---2/3-3-3-3-3-3-x---||5---5---3--3-3-3-3-3-3-3-|3--0---0-1-1-1-1-1-1-x---||-------------------------|-------------------------|
|------------------------|-----------------------||------------------------|-----------------------||7---7---5-5-5-5-5-5-5-5-|5--2---2---------------||7---7---5-5-5-5-5-5-5-5-|5--2---2---12\---------||5---5---3-3-3-3-3-3-3-3-|3--0---0---12\---------||------------------------|-----------12\---------|
Interlude
|----------------------|------------------------------||----------------------|------------------------------||----------------------|------------------------------||0--0---0h3-3-3-3-3--3-|3/5-5--5--5-5-5/6-6-6-6-3--0--||0--0---0h3-3-3-3-3--3-|3/5-5--5--5-5-5/6-6-6-6-3--0--||0--0---0h3-3-3-3-3--3-|3/5-5--5--5-5-5/6-6-6-6-3--0--|
Verse 2 /---------------------------5x-------------------------\
|----------------------|---------------------------------||----------------------|---------------------------------||----------------------|---------------------------------||0--0---0h3-3-3-3-3--3-|x-x--5-5--5--5-5-5/6-6-6-6-3--0--||0--0---0h3-3-3-3-3--3-|x-x--5-5--5--5-5-5/6-6-6-6-3--0--||0--0---0h3-3-3-3-3--3-|x-x--5-5--5--5-5-5/6-6-6-6-3--0--|
|----------------------|------------------------------||----------------------|------------------------------||----------------------|------------------------------||0--0---0h3-3-3-3-3--3-|x-x--5-5--5--5-5-5/6-6-6-6-3--||0--0---0h3-3-3-3-3--3-|x-x--5-5--5--5-5-5/6-6-6-6-3--||0--0---0h3-3-3-3-3--3-|x-x--5-5--5--5-5-5/6-6-6-6-3--|
Chorus 2
|-------------------------|-------------------------||-------------------------|-------------------------||7---7---5--5-5-5-5-5-5-5-|5--2---2/3-3-3-3-3-3-x---||7---7---5--5-5-5-5-5-5-5-|5--2---2/3-3-3-3-3-3-x---||5---5---3--3-3-3-3-3-3-3-|3--0---0-1-1-1-1-1-1-x---||-------------------------|-------------------------|
|------------------------|------------------------||------------------------|------------------------||7---7---5-5-5-5-5-5-5-5-|5-5-2-2---2/3-3-3-3-3-3-||7---7---5-5-5-5-5-5-5-5-|5-5-2-2---2/3-3-3-3-3-3-||5---5---3-3-3-3-3-3-3-3-|3-3-0-0---0-1-1-1-1-1-1-||------------------------|------------------------|
|------------------------|------------------------||------------------------|------------------------||7---7---5-5-5-5-5-5-5-5-|5-5-2-2---2/3-3-3-3-3-3-||7---7---5-5-5-5-5-5-5-5-|5-5-2-2---2/3-3-3-3-3-3-||5---5---3-3-3-3-3-3-3-3-|3-3-0-0---0-1-1-1-1-1-1-||------------------------|------------------------|
|------------------------|-------------------------|-------------0-------||------------------------|-------------------------|-------------3-------||7---7---5-5-5-5-5-5-5-5-|5-5-2-2---2/3-3-3-3-5----|-------------2-------||7---7---5-5-5-5-5-5-5-5-|5-5-2-2---2/3-3-3-3-5--0-|-------------0-------||5---5---3-3-3-3-3-3-3-3-|3-3-0-0---0-1-1-1-1-3--0-|-------------0-------||------------------------|-----------------------0-|-------------0-------|
Interlude gtr 1 /-------16x---------\
|---------------------||3-3-3-3---3-3-3-3----||2-2-2-2---1-1-1-1----||0-0-0-0---0-0-0-0----||---------------------||---------------------|
on 12th time gtr 2 comes in gtr 2 /-------------7x-----------\
|----------------------------||----------------------------||7--7-7--7-7--7-7--7-7-7-7-7-||x--x-x--x-x--x-x--x-x-x-x-x-||5--5-5--5-5--5-5--5-5-5-5-5-||----------------------------|
|---------------------------------------------------||---------------------------------------------------||10-10-10-10-10-10-10-10/12-12-12-12-12-12-12-12----||-x--x--x--x--x--x--x--x--x--x--x--x--x--x--x--x----||-8--8--8--8--8--8--8--8/10-10-10-10-10-10-10-10----||---------------------------------------------------|
gtr 1 (Solo) w/ wah
|-------------------------------------------------------------------------||-------------------------------------------------------------------------||13^r---x-13^^r--13-13^r----12^^r(12)p10----10--12-10^^r------------------||-------x--------------------------------12--------------12-10----10------||--------------------------------------------------------------12----12\8-||-------------------------------------------------------------------------|
|-------------------------------------------------------------------------||-------------------------------------------------------------------------||--------------------10^^r------------------------------------------------||--------------------------12-10----10----10-12^r(12)p10--12--12--12--12\-||8^^r(8)p0-0-0-------------------12----12---------------------------------||---------------/12-------------------------------------------------------| PH PH
|--------10----10h12-10----10---------------13-13-13-13----13----13h17----||--13^^-----13----------13------13^^r(13)^^----------13^^r----15----------||-------------------------------------------------------------------------||x----------------------------x-------------------------------------------||-----------------------------x-------------------------------------------||-------------------------------------------------------------------------|
|13-----13------(13)\---||13^^r--13^^r---(13)\---||-----------------------| end of Solo|-----------------------||-----------------------||-----------------------|
Verse 3 gtrs 1 & 2 wah off /--------------------------2x--------------------------\
|----------------------|---------------------------------||----------------------|---------------------------------||----------------------|---------------------------------||0--0---0h3-3-3-3-3--3-|x-x--5-5--5--5-5-5/6-6-6-6-3--0--||0--0---0h3-3-3-3-3--3-|x-x--5-5--5--5-5-5/6-6-6-6-3--0--||0--0---0h3-3-3-3-3--3-|x-x--5-5--5--5-5-5/6-6-6-6-3--0--|
|----------------------|------------------------------||----------------------|------------------------------||----------------------|------------------------------||0--0---0h3-3-3-3-3--3-|x-x--5-5--5--5-5-5/6-6-6-6-3--||0--0---0h3-3-3-3-3--3-|x-x--5-5--5--5-5-5/6-6-6-6-3--||0--0---0h3-3-3-3-3--3-|x-x--5-5--5--5-5-5/6-6-6-6-3--|
Chorus 3 /---------------------------4x--------------------\
|-------------------------|-------------------------||-------------------------|-------------------------||7---7---5--5-5-5-5-5-5-5-|5--2---2/3-3-3-3-3-3-x---||7---7---5--5-5-5-5-5-5-5-|5--2---2/3-3-3-3-3-3-x---||5---5---3--3-3-3-3-3-3-3-|3--0---0-1-1-1-1-1-1-x---||-------------------------|-------------------------|
|------------------------|-------------------------|---------------||------------------------|-------------------------|---------------||7---7---5-5-5-5-5-5-5-5-|5-5-2-2---2/3-3-3-3-5----|---------------||7---7---5-5-5-5-5-5-5-5-|5-5-2-2---2/3-3-3-3-5--0-|---------------||5---5---3-3-3-3-3-3-3-3-|3-3-0-0---0-1-1-1-1-3--0-|--------(0)----||------------------------|-----------------------0-|---------------| fdbk.
Tab Legend ----------- x muted string / slide up \ slide down h hammer on p pull off ^ bend half step ^^ bend full step r release 4. Time Bomb ------------- Drop D (D A D G B E) Intro (synth. arr. for gtr) /--------------6x---------------\
|---------------------------------||---------------------------------||---------------------------------||0-0-0-0-3-0-0-0-0-3-0-0-5-0-6-0--||---------------------------------||---------------------------------|
Verse 1 gtr 1
|--------------------------|-----------------------------| ---|--------------------------|-----------------------------| ||5/7-7--7--7-7--7--7-8--8--|5/7-7--7--7-7--(7)\----------| ||5/7-7--7--7-7--7--7-8--8--|5/7-7--7--7-7--(7)\----------| ||3/5-5--5--5-5--5--5-6--6--|3/5-5--5--5-5--(5)\----------| ||--------------------------|-----------------------------| |
| /---------------here gtr 2 does fill 1-----------------\ 2x |
|--------------------------|-----------------------------| ||--------------------------|-----------------------------| ||5/7-7--7--7-7--7--7-8--8--|5/7-7--7--7-7--(7)\----------| ||5/7-7--7--7-7--7--7-8--8--|5/7-7--7--7-7--(7)\----------| ||3/5-5--5--5-5--5--5-6--6--|3/5-5--5--5-5--(5)\----------| ||--------------------------|-----------------------------| ---
fill 1 gtr 2
|--------------------------|-----------------------------||--------------------------|-----------------------------||--------------------------|----------------------3----3-||--------------------------|------------------0-0-1--0-1-||--------------------------|-----------------------------||--------------------------|-----------------------------|
Pre-Chorus 1 gtrs 1 & 2 /----------3x------------\
|--------------------------|------------------||--------------------------|------------------||--------------------------|------------------||5/7-7--7--x-x-5/7-7-8--5--|5/7-7--7----------||5/7-7--7--x-x-5/7-7-8--5--|5/7-7--7----------||5/7-7--7--x-x-5/7-7-8--5--|5/7-7--7----------|
Verse 2
|--------------------------|-----------------------------| ---|--------------------------|-----------------------------| ||5/7-7--7--7-7--7--7-8--8--|5/7-7--7--7-7--(7)\----------| ||5/7-7--7--7-7--7--7-8--8--|5/7-7--7--7-7--(7)\----------| ||3/5-5--5--5-5--5--5-6--6--|3/5-5--5--5-5--(5)\----------| ||--------------------------|-----------------------------| |
| /---------------here gtr 2 does fill 1-----------------\ 2x |
|--------------------------|-----------------------------| ||--------------------------|-----------------------------| ||5/7-7--7--7-7--7--7-8--8--|5/7-7--7--7-7--(7)\----------| ||5/7-7--7--7-7--7--7-8--8--|5/7-7--7--7-7--(7)\----------| ||3/5-5--5--5-5--5--5-6--6--|3/5-5--5--5-5--(5)\----------| ||--------------------------|-----------------------------| ---
fill 1 gtr 2
|--------------------------|-----------------------------||--------------------------|-----------------------------||--------------------------|----------------------3----3-||--------------------------|------------------0-0-1--0-1-||--------------------------|-----------------------------||--------------------------|-----------------------------|
Pre-Chorus 2 gtrs 1 & 2 /----------3x------------\
|--------------------------|---------------------------||--------------------------|---------------------------||--------------------------|---------------------------||5/7-7--7--x-x-5/7-7-8--5--|5/7-7--7--x-x-5/7-7-8--5\--||5/7-7--7--x-x-5/7-7-8--5--|5/7-7--7--x-x-5/7-7-8--5\--||5/7-7--7--x-x-5/7-7-8--5--|5/7-7--7--x-x-5/7-7-8--5\--|
Chorus 1 synth. arr. for gtr
|---------------------------------|---------------------------------||---------------------------------|---------------------------------||---------------------------------|---------------------------------||0-0-0-0-3-0-0-0-0-3-0-0-5-0-6-0--|0-0-0-0-3-0-0-0-0-0-0-0-0-0-0-0--||---------------------------------|---------------------------------||---------------------------------|---------------------------------|
/----------------2x-------------\
|---------------------------------||---------------------------------||---------------------------------||0-0-0-0-3-0-0-0-0-3-0-0-5-0-6-0--||---------------------------------||---------------------------------|
Interlude
|--------------------------|-----------------------------||--------------------------|-----------------------------||5/7-7--7--7-7--7--7-8--8--|5/7-7--7--7-7--(7)\----------||5/7-7--7--7-7--7--7-8--8--|5/7-7--7--7-7--(7)\----------||3/5-5--5--5-5--5--5-6--6--|3/5-5--5--5-5--(5)\----------||--------------------------|-----------------------------|
|--------------------------|-----------------------------||--------------------------|-----------------------------||5/7-7--7--7-7--7--7-8--8--|5/7-7--7--7-7--(7)\----------||5/7-7--7--7-7--7--7-8--8--|5/7-7--7--7-7--(7)\----------||3/5-5--5--5-5--5--5-6--6--|3/5-5--5--5-5--(5)\----------||--------------------------|-----------------------------|
Verse 3
|--------------------------|-----------------------------| ---|--------------------------|-----------------------------| ||5/7-7--7--7-7--7--7-8--8--|5/7-7--7--7-7--(7)\----------| ||5/7-7--7--7-7--7--7-8--8--|5/7-7--7--7-7--(7)\----------| ||3/5-5--5--5-5--5--5-6--6--|3/5-5--5--5-5--(5)\----------| ||--------------------------|-----------------------------| |
| /---------------here gtr 2 does fill 1-----------------\ 2x |
|--------------------------|-----------------------------| ||--------------------------|-----------------------------| ||5/7-7--7--7-7--7--7-8--8--|5/7-7--7--7-7--(7)\----------| ||5/7-7--7--7-7--7--7-8--8--|5/7-7--7--7-7--(7)\----------| ||3/5-5--5--5-5--5--5-6--6--|3/5-5--5--5-5--(5)\----------| ||--------------------------|-----------------------------| ---
fill 1 gtr 2
|--------------------------|-----------------------------||--------------------------|-----------------------------||--------------------------|----------------------3----3-||--------------------------|------------------0-0-1--0-1-||--------------------------|-----------------------------||--------------------------|-----------------------------|
Pre-Chorus 3 /----------3x------------\
|--------------------------|---------------------------||--------------------------|---------------------------||--------------------------|---------------------------||5/7-7--7--x-x-5/7-7-8--5--|5/7-7--7--x-x-5/7-7-8--5\--||5/7-7--7--x-x-5/7-7-8--5--|5/7-7--7--x-x-5/7-7-8--5\--||5/7-7--7--x-x-5/7-7-8--5--|5/7-7--7--x-x-5/7-7-8--5\--|
Chorus 2 synth. arr. for gtr /--------------8x---------------\
|---------------------------------||---------------------------------||---------------------------------||0-0-0-0-3-0-0-0-0-3-0-0-5-0-6-0--||---------------------------------||---------------------------------|
Bridge gtrs 1 & 2 /--------------4x--------------\
|--------------------------------|------------------||--------------------------------|------------------||5/7-7-7-5/7-7-7-5/7-7-10--5-5-5-|3---3----2---5----||5/7-7-7-5/7-7-7-5/7-7-10--5-5-5-|3---3----2---5----||3/5-5-5-3/5-5-5-3/5-5--8--3-3-3-|1---1----0---3----||--------------------------------|-------3----------|
/--------------4x--------------\
|--------------------------------|------------------||--------------------------------|------------------||5/7-7-7-5/7-7-7-5/7-7-10--5-5-5-|3---3----2---5----||5/7-7-7-5/7-7-7-5/7-7-10--5-5-5-|3---3----2---5----||3/5-5-5-3/5-5-5-3/5-5--8--3-3-3-|1---1----0---3----||--------------------------------|-------3----------|
Chorus 3 synth. arr. for gtr /--------------4x---------------\
|---------------------------------||---------------------------------||---------------------------------||0-0-0-0-3-0-0-0-0-3-0-0-5-0-6-0--||---------------------------------||---------------------------------|
Outro gtrs 1 & 2 /--------------4x--------------\
|--------------------------------||--------------------------------||5/7-7-7-5/7-7-7-5/7-7-10--5-5-5-||5/7-7-7-5/7-7-7-5/7-7-10--5-5-5-||3/5-5-5-3/5-5-5-3/5-5--8--3-3-3-||--------------------------------|
/-----------------------------------4x---------------------------\
|--------------------------------|---------------------------------||--------------------------------|---------------------------------||5-7-7-5-7-7-5-7-7-5-7-7-5-7-7-5-|7-7-5-7-7-5-7-7-5-7-7-5-7-5-5-5--||5-7-7-5-7-7-5-7-7-5-7-7-5-7-7-5-|7-7-5-7-7-5-7-7-5-7-7-5-7-5-5-5--||3-5-5-3-5-5-3-5-5-3-5-5-3-5-5-3-|5-5-3-5-5-3-5-5-3-5-5-3-5-3-3-3--||--------------------------------|---------------------------------|
/--------------4x-------------\
|-------------------------------|---------------------------------||-------------------------------|---------------------------------||5-7-7-5-7-7-5-7-7-5-7-7-5-7-7--|5-7-7-5-7-7-5-7-7-5-7-7-5-7-7-7--||5-7-7-5-7-7-5-7-7-5-7-7-5-7-7--|5-7-7-5-7-7-5-7-7-5-7-7-5-7-7-7--||3-5-5-3-5-5-3-5-5-3-5-5-3-5-5--|3-5-5-3-5-5-3-5-5-3-5-5-3-5-5-5--||-------------------------------|---------------------------------|
Tab Legend ----------- / slide up \ slide down x muted string () note is ringing 5. Bad Religion ----------------- Drop D (D A D G B E) Intro gtrs 1 & 2 /--------------------2x-----------------------\
|-------------------|-------------|----------|-------------|--------||-------------------|-------------|----------|-------------|--------||-------------------|-------------|----------|-------------|--------||0--0--0-0--0--0-0--|0--0--0-0--0-|0--0-0--0-|0--0-0--0--0-|0-0-----||0--0--0-0--0--0-0--|0--0--0-0--0-|0--0-0--0-|0--0-0--0--0-|0-0-----||0--0--0-0--0--0-0--|0--0--0-0--0-|0--0-0--0-|0--0-0--0--0-|0-0-----|
Verse 1 /-----------------------3x-------------------\
|-------------|----------|-------------|-------||-------------|----------|-------------|-------||-------------|----------|-------------|-------||0--0--0-0--0-|0--0-0--0-|0--0-0--0--0-|0-0----||0--0--0-0--0-|0--0-0--0-|0--0-0--0--0-|0-0----||0--0--0-0--0-|0--0-0--0-|0--0-0--0--0-|0-0----|
|-------------|----------|-------------||-------------|----------|-------------||-------------|----------|-------------||0--0--0-0--0-|0--0-0--0-|0--0-0--0--0-||0--0--0-0--0-|0--0-0--0-|0--0-0--0--0-||0--0--0-0--0-|0--0-0--0-|0--0-0--0--0-|
Chorus 1
|--------------|----------------|--------------|-----------------||--------------|----------------|--------------|-----------------||7\5-5-5-5-5-5-|5-5-5-5-5-5-5-5-|5/7-7-7-7-7-7-|7-7-7-7-7-7-7-7--||x-x-x-x-x-x-x-|x-x-x-x-x-x-x-x-|x-x-x-x-x-x-x-|x-x-x-x-x-x-x-x--||5\3-3-3-3-3-3-|3-3-3-3-3-3-3-3-|3/5-5-5-5-5-5-|5-5-5-5-5-5-5-5--||--------------|----------------|--------------|-----------------|
|--------------|----------------|------------------|----------||--------------|----------------|------------------|----------||7\5-5-5-5-5-5-|5-5-5-5-5-5-5-5-|------------------|----------||x-x-x-x-x-x-x-|x-x-x-x-x-x-x-x-|0--0-0-0--0--0--0-|0--0------||5\3-3-3-3-3-3-|3-3-3-3-3-3-3-3-|0--0-0-0--0--0--0-|0--0------||--------------|----------------|0--0-0-0--0--0--0-|0--0------|
Interlude
|-------------|----------|-------------||-------------|----------|-------------||-------------|----------|-------------||0--0--0-0--0-|0--0-0--0-|0--0-0--0--0-||0--0--0-0--0-|0--0-0--0-|0--0-0--0--0-||0--0--0-0--0-|0--0-0--0-|0--0-0--0--0-|
Verse 2 /-----------------------3x-------------------\
|-------------|----------|-------------|-------||-------------|----------|-------------|-------||-------------|----------|-------------|-------||0--0--0-0--0-|0--0-0--0-|0--0-0--0--0-|0-0----||0--0--0-0--0-|0--0-0--0-|0--0-0--0--0-|0-0----||0--0--0-0--0-|0--0-0--0-|0--0-0--0--0-|0-0----|
|-------------|----------|-------------||-------------|----------|-------------||-------------|----------|-------------||0--0--0-0--0-|0--0-0--0-|0--0-0--0--0-||0--0--0-0--0-|0--0-0--0-|0--0-0--0--0-||0--0--0-0--0-|0--0-0--0-|0--0-0--0--0-|
Chorus 2 /---------------------------------3x---------------------------\
|--------------|----------------|--------------|-----------------||--------------|----------------|--------------|-----------------||7\5-5-5-5-5-5-|5-5-5-5-5-5-5-5-|5/7-7-7-7-7-7-|7-7-7-7-7-7-7-7--||x-x-x-x-x-x-x-|x-x-x-x-x-x-x-x-|x-x-x-x-x-x-x-|x-x-x-x-x-x-x-x--||5\3-3-3-3-3-3-|3-3-3-3-3-3-3-3-|3/5-5-5-5-5-5-|5-5-5-5-5-5-5-5--||--------------|----------------|--------------|-----------------|
|--------------|----------------|-------------|-----------------|---------||--------------|----------------|-------------|-----------------|---------||7\5-5-5-5-5-5-|5-5-5-5---------|-------------|-----------------|---------||x-x-x-x-x-x-x-|x-x-x-x---------|-------------|-----------------|---------||5\3-3-3-3-3-3-|3-3-3-3--11\----|7--8\7--7-7--|7--7--8\7--7--7--|--7---5--||--------------|----------------|7--8\7--7-7--|7--7--8\7--7--7--|--7---5--|
gtr 1 (gradually fades in)
|----------|----------------|--------------|-------------|---------------||----------|----------------|--------------|-------------|---------------||----------|----------------|--------------|-------------|---------------||----------|----------------|--------------|-------------|---------------||3---2---0-|-/5-----------3-|--------------|2----------1-|---------------||3---2---0-|-----0--0--0----|0--0--2-0-2h3-|---0--0--0---|0--0--2-0-2h3--|
Interlude gtrs 1 & 2 /------------------------------2x---------------------------\
|----------------|--------------|-------------|---------------||----------------|--------------|-------------|---------------||----------------|--------------|-------------|---------------||----------------|--------------|-------------|---------------||-/5-----------3-|--------------|2----------1-|---------------||-----0--0--0----|0--0--2-0-2h3-|---0--0--0---|0--0--2-0-2h3--|
|----------------|--------------|-------------|---------------||----------------|--------------|-------------|---------------||----------------|--------------|-------------|---------------||----------------|--------------|-------------|---------------||-/5-----------3-|--------------|2----------3-|---------------||-----0--0--0----|0--0--2-0-2h3-|---0--0--0---|0--0--2-0-2h3--|
/------------------------------3x---------------------------\
|----------------|--------------|-------------|---------------||----------------|--------------|-------------|---------------||----------------|--------------|-------------|---------------||----------------|--------------|-------------|---------------||-/5-----------3-|--------------|2----------1-|---------------||-----0--0--0----|0--0--2-0-2h3-|---0--0--0---|0--0--2-0-2h3--|
|----------------|--------------|-------------|---------------||----------------|--------------|-------------|---------------||----------------|--------------|-------------|---------------||----------------|--------------|-------------|---------------||-/5-----------3-|--------------|2----------3-|---------------||-----0--0--0----|0--0--2-0-2h3-|---0--0--0---|0--0--2-0-2h3--|
Outro
|-------------|----------|-------------|-------||-------------|----------|-------------|-------||-------------|----------|-------------|-------||0--0--0-0--0-|0--0-0--0-|0--0-0--0--0-|0-0----||0--0--0-0--0-|0--0-0--0-|0--0-0--0--0-|0-0----||0--0--0-0--0-|0--0-0--0-|0--0-0--0--0-|0-0----|
/-----------------------------2x---------------------------\
|-------------|----------|-------------|---------------------||-------------|----------|-------------|---------------------||-------------|----------|-------------|---------------------||0--0--0-0--0-|0--0-0--0-|0--0-0--0--0-|---------------------||0--0--0-0--0-|0--0-0--0-|0--0-0--0--0-|2--2--2--3--2--3--0--||0--0--0-0--0-|0--0-0--0-|0--0-0--0--0-|2--2--2--3--2--3--0--| PM--------------|
/------------------------2x------------------\
|-------------|----------|-------------|-------||-------------|----------|-------------|-------||-------------|----------|-------------|-------||0--0--0-0--0-|0--0-0--0-|0--0-0--0--0-|0-0----||0--0--0-0--0-|0--0-0--0-|0--0-0--0--0-|0-0----||0--0--0-0--0-|0--0-0--0-|0--0-0--0--0-|0-0----|
Tab Legend ----------- PM palm mute h hammer on / slide up \ slide down x muted string 6. Immune ---------- Drop D (D A D G B E) Intro gtr 1 /---------------2x-----------\
|------------------------------||------------------------------||------------------------------||0-----------------------------||0-----------------------------||0-----------------------------|
gtr 2
|----------------|-----------|----------------|----------------||----------------|-----------|----------------|----------------||----------------|-----------|----------------|----------------||----------------|-----------|----------------|----------------||5----------(5)--|(5)\3------|-(3)-----(3)/7--|7\5-------(5)\--||----------------|-----------|----------------|----------------| vol. swell fdbk. fdbk.
|----------------|-----------|----------------|----------------||----------------|-----------|----------------|----------------||----------------|-----------|----------------|----------------||----------------|-----------|----------------|----------------||x---5------(5)--|(5)\3------|-(3)-----(3)/7--|7\5-------(5)\--||----------------|-----------|----------------|----------------| fdbk. fdbk. fdbk.
Verse 1 gtr 1 w/ wah
|--------------------------|------------------------------------||--------------------------|------------------------------------||----7----7--------5-------|------------7-----7----x---5--------||-7----7-----x-x-x----5--7-|x-x-x-x--7-----7-----x---x----5--7--||--------------------------|------------------------------------||--------------------------|------------------------------------| NH-------| NH--------|
|------------------------------------|------------------------------------||------------------------------------|------------------------------------||------------7-----7--------5--------|------------7-----7--------5--------||x-x-x-x--7-----7----x-x-x-----5--7--|x-x-x-7--7-----7----x-x-x-----5--7--||------------------------------------|------------------------------------||------------------------------------|------------------------------------| NH--------| NH-----------|
|------------------------------------|------------------------------------||------------------------------------|------------------------------------||------------7-----7--------5--------|------------7-----7--------5--------||x-x-x-7--7-----7----x-x-x-----5--7--|x-x-x-7--7-----7----x-x-x-----5--7--||------------------------------------|------------------------------------||------------------------------------|------------------------------------| NH-----------| NH-----------|
|------------------------------------|----------------------||------------------------------------|----------------------||------------7-----7--------5--------|------------0---------||x-x-x-7--7-----7----x-x-x-----5--7--|x-x-x-7--7--0---------||------------------------------------|----------------------||------------------------------------|----------------------| NH-----------| NH--|
Chorus 1 gtrs 1 & 2 wah off /----------------4x----------\
|------------------------------||------------------------------||------------------------------||------------------------------||0--0-0-2--0-2--0-2/3-3-3-3-3--||0--0-0-2--0-2--0-2/3-3-3-3-3--|
Interlude gtr 1
|------------------------------||------------------------------||------------------------------||0-----------------------------||0-----------------------------||0-----------------------------|
gtr 2
|----------------|-----------|----------------|----------------||----------------|-----------|----------------|----------------||----------------|-----------|----------------|----------------||----------------|-----------|----------------|----------------||5----------(5)--|(5)\3------|-(3)-----(3)/7--|7\5-------(5)\--||----------------|-----------|----------------|----------------| vol. swell fdbk. fdbk.
Verse 2 gtr 1 w/ wah
|--------------------------|------------------------------------||--------------------------|------------------------------------||----7----7--------5-------|------------7-----7----x---5--------||-7----7-----x-x-x----5--7-|x-x-x-x--7-----7-----x---x----5--7--||--------------------------|------------------------------------||--------------------------|------------------------------------| NH-------| NH--------|
|------------------------------------|------------------------------------||------------------------------------|------------------------------------||------------7-----7--------5--------|------------7-----7--------5--------||x-x-x-x--7-----7----x-x-x-----5--7--|x-x-x-7--7-----7----x-x-x-----5--7--||------------------------------------|------------------------------------||------------------------------------|------------------------------------| NH--------| NH-----------|
|------------------------------------|------------------------------------||------------------------------------|------------------------------------||------------7-----7--------5--------|------------7-----7--------5--------||x-x-x-7--7-----7----x-x-x-----5--7--|x-x-x-7--7-----7----x-x-x-----5--7--||------------------------------------|------------------------------------||------------------------------------|------------------------------------| NH-----------| NH-----------|
|------------------------------------|----------------------||------------------------------------|----------------------||------------7-----7--------5--------|------------0---------||x-x-x-7--7-----7----x-x-x-----5--7--|x-x-x-7--7--0---------||------------------------------------|----------------------||------------------------------------|----------------------| NH-----------| NH--|
Chorus 2 gtrs 1 & 2 wah off /----------------8x----------\
|------------------------------||------------------------------||------------------------------||------------------------------||0--0-0-2--0-2--0-2/3-3-3-3-3--||0--0-0-2--0-2--0-2/3-3-3-3-3--|
Bridge
|----------------------------|----------------------------||----------------------------|----------------------------||----------------------------|----------------------------||----------------------------|----------------------------||0--0-0--0-0--0-0--0-0h2-2-2-|0--0-0--0-0--0-0--0-0h3-3-3-||0--0-0--0-0--0-0--0-0h2-2-2-|0--0-0--0-0--0-0--0-0h3-3-3-|
|----------------------------|----------------------------||----------------------------|----------------------------||----------------------------|----------------------------||----------------------------|----------------------------||0--0-0--0-0--0-0--0-0h2-2-2-|0--0-0--0-0--0-0--0-0h2-2/3-||0--0-0--0-0--0-0--0-0h2-2-2-|0--0-0--0-0--0-0--0-0h2-2/3-|
Interlude
|-----------------|-------------------|-------------------------------||-----------------|-------------------|-------------------------------||5/7--------7/9---|9/10--------10/12--|9--------5---------(5)/7-------||x----------x-----|x-x----------x-----|x--------x---------------------||3/5--------5/7---|7/8----------8/10--|7--------3---------(3)/5-------||-----------------|-------------------|-------------------------------|
|-----------------|-------------------|-------------------------------||-----------------|-------------------|-------------------------------||5/7--------7/9---|9/10--------10/12--|9--------5---------(5)/7-------||x----------x-----|x-x----------x-----|x--------x---------------------||3/5--------5/7---|7/8----------8/10--|7--------3---------(3)/5-------||------0-0--------|--------0-0--------|-----0-0-----------------------|
Verse 3 gtr 1 w/ wah
|--------------------------|------------------------------------||--------------------------|------------------------------------||----7----7--------5-------|------------7-----7----x---5--------||-7----7-----x-x-x----5--7-|x-x-x-x--7-----7-----x---x----5--7--||--------------------------|------------------------------------||--------------------------|------------------------------------| NH-------| NH--------|
|------------------------------------|------------------------------------||------------------------------------|------------------------------------||------------7-----7--------5--------|------------7-----7--------5--------||x-x-x-x--7-----7----x-x-x-----5--7--|x-x-x-7--7-----7----x-x-x-----5--7--||------------------------------------|------------------------------------||------------------------------------|------------------------------------| NH--------| NH-----------|
|------------------------------------|------------------------------------||------------------------------------|------------------------------------||------------7-----7--------5--------|------------7-----7--------5--------||x-x-x-7--7-----7----x-x-x-----5--7--|x-x-x-7--7-----7----x-x-x-----5--7--||------------------------------------|------------------------------------||------------------------------------|------------------------------------| NH-----------| NH-----------|
|------------------------------------|----------------------||------------------------------------|----------------------||------------7-----7--------5--------|------------0---------||x-x-x-7--7-----7----x-x-x-----5--7--|x-x-x-7--7--0---------||------------------------------------|----------------------||------------------------------------|----------------------| NH-----------| NH--|
Chorus 3 gtrs 1 & 2 wah off /----------------8x----------\
|------------------------------||------------------------------||------------------------------||------------------------------||0--0-0-2--0-2--0-2/3-3-3-3-3--||0--0-0-2--0-2--0-2/3-3-3-3-3--|
Bridge gtr 1
|----------------------------------------||----------------------------------------||----------------------------------------||0---------------------------------------||0---------------------------------------||0---------------------------------------|
gtr 2
|----------------------------------------||----------------------------------------||----------------------7-----------------||0---------------------------------------||0---------------------------------------||0---------------------------------------| vol. swell
gtrs 1 & 2
|----------------------------|----------------------------| ---|----------------------------|----------------------------| ||----------------------------|----------------------------| ||----------------------------|----------------------------| ||0--0-0--0-0--0-0--0-0h2-2-2-|0--0-0--0-0--0-0--0-0h3-3-3-| ||0--0-0--0-0--0-0--0-0h2-2-2-|0--0-0--0-0--0-0--0-0h3-3-3-| |
2x|----------------------------|----------------------------| ||----------------------------|----------------------------| ||----------------------------|----------------------------| ||----------------------------|----------------------------| ||0--0-0--0-0--0-0--0-0h2-2-2-|0--0-0--0-0--0-0--0-0h2-2/3-| ||0--0-0--0-0--0-0--0-0h2-2-2-|0--0-0--0-0--0-0--0-0h2-2/3-| ---
Interlude gtr 1 (Rythm)
|----------------------------|----------------------------| ---|----------------------------|----------------------------| ||----------------------------|----------------------------| ||----------------------------|----------------------------| ||0--0-0--0-0--0-0--0-0h2-2-2-|0--0-0--0-0--0-0--0-0h3-3-3-| ||0--0-0--0-0--0-0--0-0h2-2-2-|0--0-0--0-0--0-0--0-0h3-3-3-| |
2x|----------------------------|----------------------------| ||----------------------------|----------------------------| ||----------------------------|----------------------------| ||----------------------------|----------------------------| ||0--0-0--0-0--0-0--0-0h2-2-2-|0--0-0--0-0--0-0--0-0h2-2/3-| ||0--0-0--0-0--0-0--0-0h2-2-2-|0--0-0--0-0--0-0--0-0h2-2/3-| ---
gtr 2 (Solo) w/ wah
|--------------------------------------------------------------------------||---13----13----13-13-13-13--13\--/13--13-13-13-13-13----13-14-13-13-13-13-||12----12-------12-12-12-12--12\--/12--12-12-12-12-12-12-12-12-12-12-12-12-||--------------------------------------------------------------------------||--------------------------------------------------------------------------||--------------------------------------------------------------------------|
|--------------------------------------------------------------------------||13------------------------------------------------------------------------||12--------------10-10-10------------------------10-10-10------------10----||-----12\-----------------12---10-10-12-12---0-0----------12---9h10--------||----------9h10------------------------------------------------------------||--------------------------------------------------------------------------| PH PH
pitch: C
|--------------------------------------------------------------------------||--------------------------------------------------------------------------||------13---13-13-13-13\--/13-13-13-13-13-13-13-13-13-13-13-13-13--------x-||x--x--12---12-12-12-12\--/12-12-12-12-12-12-12-12-12-12-12-12-12---12\--x-||x--x----------------------------------------------------------------------||--------------------------------------------------------------------------|
|------------------------------------------------||----13^^r(13)^^----13^^----13^^^^---(13)\-------||x--------------------------13^------(13)\-------| end of Solo 1|x-----------------------------------------------||------------------------------------------------||------------------------------------------------|
Outro gtrs 1 & 2 wah off
|----------------------------|----------------------------||----------------------------|----------------------------||----------------------------|----------------------------||----------------------------|----------------------------||0--0-0--0-0--0-0--0-0h2-2-2-|0--0-0--0-0--0-0--0-0h3-3-3-||0--0-0--0-0--0-0--0-0h2-2-2-|0--0-0--0-0--0-0--0-0h3-3-3-|
|----------------------------|----------------------------||----------------------------|----------------------------||----------------------------|----------------------------||----------------------------|----------------------------||0--0-0--0-0--0-0--0-0h2-2-2-|0--0-0--0-0--0-0--0-0h2-2/3-||0--0-0--0-0--0-0--0-0h2-2-2-|0--0-0--0-0--0-0--0-0h2-2/3-|
gtr 1 (Rythm)
|----------------------------|----------------------------||----------------------------|----------------------------||----------------------------|----------------------------||----------------------------|----------------------------||0--0-0--0-0--0-0--0-0h2-2-2-|0--0-0--0-0--0-0--0-0h3-3-3-||0--0-0--0-0--0-0--0-0h2-2-2-|0--0-0--0-0--0-0--0-0h3-3-3-|
|----------------------------|----------------------------|------------||----------------------------|----------------------------|------------||----------------------------|----------------------------|--1---------||----------------------------|----------------------------|--0---------||0--0-0--0-0--0-0--0-0h2-2-2-|0--0-0--0-0--0-0--0-0h2-2/3-|------------||0--0-0--0-0--0-0--0-0h2-2-2-|0--0-0--0-0--0-0--0-0h2-2/3-|------------|
gtr 2 (Solo) w/ wah
|--------------------------------------------------------------10-------10-||-----------------------------------------------------------------13p10----||12^^---10----x--10--------------------------------------12^^--------------||-------------x------12-10h12p10----------------------x--------------------||--------------------------------12-10-12-11-10\8^^r--x--------------------||--------------------------------------------------------------------------|
|--------------------------------------10h13p10-13-13-13-13-13/16-16-16-16-||13p10------------------------------------------12-12-12-12-12/15-15-15-15-||------13-/13-13-13-13-13-13-13--12^^--------------------------------------||---------/12-12-12-12-12-12-12--------------------------------------------||--------------------------------------------------------------------------||--------------------------------------------------------------------------|
|16/19-19-19-19-19-19-19\------------------------------------||15/18-18-18-18-18-18-18\------------------------------------||------------------------------1-----(1)---------------------| end of|------------------------------0-----(0)---------------------| Solo 2|------------------------------------------------------------||------------------------------------------------------------| fdbk.
Tab Legend ----------- (n) note is still ringing fdbk. feedback / slide up \ slide down NH natrual harmonic PH pinch harmonic x muted string h hammer on p pull off ^ bend half step ^^ bend one full step ^^^^ bend two full steps r release 7. Someone In London ---------------------- Drop D (D A D G B E) Intro gtr 1
|-----------------------|------------------------| ---|-----------------------|------------------------| ||-----------------5-----|------------------------| ||------6^r-----------7--|------6^r------0-----0--| ||---5-------8--5--------|---5--------------------| ||0----------------------|0-----------3-----2-----| 4x
|
|-----------------------|------------------------| ||-----------------------|------------------------| ||-----------------5-----|------------------------| ||------6^r-----------7--|------0--------0-----0--| ||---5-------8--5--------|---3--------2-----------| ||0----------------------|3--------2--------1-----| ---
|-----------------------|------------------------||-----------------------|------------------------||-----------------5-----|------------------------||------6^r-----------7--|------6^r------0-----0--||---5-------8--5--------|---5--------------------||0----------------------|0-----------3-----2-----|
|-----------------------|------------------------||----------
Please rate this tab:
x1.0