Godsmack - Immune tab

Immune
-------


song-  Immune
band-  Godsmack
album- Godsmack
year-  1998


tuning:

Drop D (D A D G B E)


Intro    gtr 1

 /---------------2x-----------\

|------------------------------||------------------------------||------------------------------||0-----------------------------||0-----------------------------||0-----------------------------|
gtr 2
|----------------|-----------|----------------|----------------||----------------|-----------|----------------|----------------||----------------|-----------|----------------|----------------||----------------|-----------|----------------|----------------||5----------(5)--|(5)\3------|-(3)-----(3)/7--|7\5-------(5)\--||----------------|-----------|----------------|----------------| vol. swell fdbk. fdbk.
|----------------|-----------|----------------|----------------||----------------|-----------|----------------|----------------||----------------|-----------|----------------|----------------||----------------|-----------|----------------|----------------||x---5------(5)--|(5)\3------|-(3)-----(3)/7--|7\5-------(5)\--||----------------|-----------|----------------|----------------| fdbk. fdbk. fdbk.
Verse 1 gtr 1 w/ wah
|--------------------------|------------------------------------||--------------------------|------------------------------------||----7----7--------5-------|------------7-----7----x---5--------||-7----7-----x-x-x----5--7-|x-x-x-x--7-----7-----x---x----5--7--||--------------------------|------------------------------------||--------------------------|------------------------------------| NH-------| NH--------|
|------------------------------------|------------------------------------||------------------------------------|------------------------------------||------------7-----7--------5--------|------------7-----7--------5--------||x-x-x-x--7-----7----x-x-x-----5--7--|x-x-x-7--7-----7----x-x-x-----5--7--||------------------------------------|------------------------------------||------------------------------------|------------------------------------| NH--------| NH-----------|
|------------------------------------|------------------------------------||------------------------------------|------------------------------------||------------7-----7--------5--------|------------7-----7--------5--------||x-x-x-7--7-----7----x-x-x-----5--7--|x-x-x-7--7-----7----x-x-x-----5--7--||------------------------------------|------------------------------------||------------------------------------|------------------------------------| NH-----------| NH-----------|
|------------------------------------|----------------------||------------------------------------|----------------------||------------7-----7--------5--------|------------0---------||x-x-x-7--7-----7----x-x-x-----5--7--|x-x-x-7--7--0---------||------------------------------------|----------------------||------------------------------------|----------------------| NH-----------| NH--|
Chorus 1 gtrs 1 & 2 wah off /----------------4x----------\
|------------------------------||------------------------------||------------------------------||------------------------------||0--0-0-2--0-2--0-2/3-3-3-3-3--||0--0-0-2--0-2--0-2/3-3-3-3-3--|
Interlude gtr 1
|------------------------------||------------------------------||------------------------------||0-----------------------------||0-----------------------------||0-----------------------------|
gtr 2
|----------------|-----------|----------------|----------------||----------------|-----------|----------------|----------------||----------------|-----------|----------------|----------------||----------------|-----------|----------------|----------------||5----------(5)--|(5)\3------|-(3)-----(3)/7--|7\5-------(5)\--||----------------|-----------|----------------|----------------| vol. swell fdbk. fdbk.
Verse 2 gtr 1 w/ wah
|--------------------------|------------------------------------||--------------------------|------------------------------------||----7----7--------5-------|------------7-----7----x---5--------||-7----7-----x-x-x----5--7-|x-x-x-x--7-----7-----x---x----5--7--||--------------------------|------------------------------------||--------------------------|------------------------------------| NH-------| NH--------|
|------------------------------------|------------------------------------||------------------------------------|------------------------------------||------------7-----7--------5--------|------------7-----7--------5--------||x-x-x-x--7-----7----x-x-x-----5--7--|x-x-x-7--7-----7----x-x-x-----5--7--||------------------------------------|------------------------------------||------------------------------------|------------------------------------| NH--------| NH-----------|
|------------------------------------|------------------------------------||------------------------------------|------------------------------------||------------7-----7--------5--------|------------7-----7--------5--------||x-x-x-7--7-----7----x-x-x-----5--7--|x-x-x-7--7-----7----x-x-x-----5--7--||------------------------------------|------------------------------------||------------------------------------|------------------------------------| NH-----------| NH-----------|
|------------------------------------|----------------------||------------------------------------|----------------------||------------7-----7--------5--------|------------0---------||x-x-x-7--7-----7----x-x-x-----5--7--|x-x-x-7--7--0---------||------------------------------------|----------------------||------------------------------------|----------------------| NH-----------| NH--|
Chorus 2 gtrs 1 & 2 wah off /----------------8x----------\
|------------------------------||------------------------------||------------------------------||------------------------------||0--0-0-2--0-2--0-2/3-3-3-3-3--||0--0-0-2--0-2--0-2/3-3-3-3-3--|
Bridge
|----------------------------|----------------------------||----------------------------|----------------------------||----------------------------|----------------------------||----------------------------|----------------------------||0--0-0--0-0--0-0--0-0h2-2-2-|0--0-0--0-0--0-0--0-0h3-3-3-||0--0-0--0-0--0-0--0-0h2-2-2-|0--0-0--0-0--0-0--0-0h3-3-3-|
|----------------------------|----------------------------||----------------------------|----------------------------||----------------------------|----------------------------||----------------------------|----------------------------||0--0-0--0-0--0-0--0-0h2-2-2-|0--0-0--0-0--0-0--0-0h2-2/3-||0--0-0--0-0--0-0--0-0h2-2-2-|0--0-0--0-0--0-0--0-0h2-2/3-|
Interlude
|-----------------|-------------------|-------------------------------||-----------------|-------------------|-------------------------------||5/7--------7/9---|9/10--------10/12--|9--------5---------(5)/7-------||x----------x-----|x-x----------x-----|x--------x---------------------||3/5--------5/7---|7/8----------8/10--|7--------3---------(3)/5-------||-----------------|-------------------|-------------------------------|
|-----------------|-------------------|-------------------------------||-----------------|-------------------|-------------------------------||5/7--------7/9---|9/10--------10/12--|9--------5---------(5)/7-------||x----------x-----|x-x----------x-----|x--------x---------------------||3/5--------5/7---|7/8----------8/10--|7--------3---------(3)/5-------||------0-0--------|--------0-0--------|-----0-0-----------------------|
Verse 3 gtr 1 w/ wah
|--------------------------|------------------------------------||--------------------------|------------------------------------||----7----7--------5-------|------------7-----7----x---5--------||-7----7-----x-x-x----5--7-|x-x-x-x--7-----7-----x---x----5--7--||--------------------------|------------------------------------||--------------------------|------------------------------------| NH-------| NH--------|
|------------------------------------|------------------------------------||------------------------------------|------------------------------------||------------7-----7--------5--------|------------7-----7--------5--------||x-x-x-x--7-----7----x-x-x-----5--7--|x-x-x-7--7-----7----x-x-x-----5--7--||------------------------------------|------------------------------------||------------------------------------|------------------------------------| NH--------| NH-----------|
|------------------------------------|------------------------------------||------------------------------------|------------------------------------||------------7-----7--------5--------|------------7-----7--------5--------||x-x-x-7--7-----7----x-x-x-----5--7--|x-x-x-7--7-----7----x-x-x-----5--7--||------------------------------------|------------------------------------||------------------------------------|------------------------------------| NH-----------| NH-----------|
|------------------------------------|----------------------||------------------------------------|----------------------||------------7-----7--------5--------|------------0---------||x-x-x-7--7-----7----x-x-x-----5--7--|x-x-x-7--7--0---------||------------------------------------|----------------------||------------------------------------|----------------------| NH-----------| NH--|
Chorus 3 gtrs 1 & 2 wah off /----------------8x----------\
|------------------------------||------------------------------||------------------------------||------------------------------||0--0-0-2--0-2--0-2/3-3-3-3-3--||0--0-0-2--0-2--0-2/3-3-3-3-3--|
Bridge gtr 1
|----------------------------------------||----------------------------------------||----------------------------------------||0---------------------------------------||0---------------------------------------||0---------------------------------------|
gtr 2
|----------------------------------------||----------------------------------------||----------------------7-----------------||0---------------------------------------||0---------------------------------------||0---------------------------------------| vol. swell
gtrs 1 & 2
|----------------------------|----------------------------| ---|----------------------------|----------------------------| ||----------------------------|----------------------------| ||----------------------------|----------------------------| ||0--0-0--0-0--0-0--0-0h2-2-2-|0--0-0--0-0--0-0--0-0h3-3-3-| ||0--0-0--0-0--0-0--0-0h2-2-2-|0--0-0--0-0--0-0--0-0h3-3-3-| |
2x|----------------------------|----------------------------| ||----------------------------|----------------------------| ||----------------------------|----------------------------| ||----------------------------|----------------------------| ||0--0-0--0-0--0-0--0-0h2-2-2-|0--0-0--0-0--0-0--0-0h2-2/3-| ||0--0-0--0-0--0-0--0-0h2-2-2-|0--0-0--0-0--0-0--0-0h2-2/3-| ---
Interlude gtr 1 (Rythm)
|----------------------------|----------------------------| ---|----------------------------|----------------------------| ||----------------------------|----------------------------| ||----------------------------|----------------------------| ||0--0-0--0-0--0-0--0-0h2-2-2-|0--0-0--0-0--0-0--0-0h3-3-3-| ||0--0-0--0-0--0-0--0-0h2-2-2-|0--0-0--0-0--0-0--0-0h3-3-3-| |
2x|----------------------------|----------------------------| ||----------------------------|----------------------------| ||----------------------------|----------------------------| ||----------------------------|----------------------------| ||0--0-0--0-0--0-0--0-0h2-2-2-|0--0-0--0-0--0-0--0-0h2-2/3-| ||0--0-0--0-0--0-0--0-0h2-2-2-|0--0-0--0-0--0-0--0-0h2-2/3-| ---
gtr 2 (Solo) w/ wah
|--------------------------------------------------------------------------||---13----13----13-13-13-13--13\--/13--13-13-13-13-13----13-14-13-13-13-13-||12----12-------12-12-12-12--12\--/12--12-12-12-12-12-12-12-12-12-12-12-12-||--------------------------------------------------------------------------||--------------------------------------------------------------------------||--------------------------------------------------------------------------|
|--------------------------------------------------------------------------||13------------------------------------------------------------------------||12--------------10-10-10------------------------10-10-10------------10----||-----12\-----------------12---10-10-12-12---0-0----------12---9h10--------||----------9h10------------------------------------------------------------||--------------------------------------------------------------------------| PH PH
pitch: C
|--------------------------------------------------------------------------||--------------------------------------------------------------------------||------13---13-13-13-13\--/13-13-13-13-13-13-13-13-13-13-13-13-13--------x-||x--x--12---12-12-12-12\--/12-12-12-12-12-12-12-12-12-12-12-12-12---12\--x-||x--x----------------------------------------------------------------------||--------------------------------------------------------------------------|
|------------------------------------------------||----13^^r(13)^^----13^^----13^^^^---(13)\-------||x--------------------------13^------(13)\-------| end of Solo 1|x-----------------------------------------------||------------------------------------------------||------------------------------------------------|
Outro gtrs 1 & 2 wah off
|----------------------------|----------------------------||----------------------------|----------------------------||----------------------------|----------------------------||----------------------------|----------------------------||0--0-0--0-0--0-0--0-0h2-2-2-|0--0-0--0-0--0-0--0-0h3-3-3-||0--0-0--0-0--0-0--0-0h2-2-2-|0--0-0--0-0--0-0--0-0h3-3-3-|
|----------------------------|----------------------------||----------------------------|----------------------------||----------------------------|----------------------------||----------------------------|----------------------------||0--0-0--0-0--0-0--0-0h2-2-2-|0--0-0--0-0--0-0--0-0h2-2/3-||0--0-0--0-0--0-0--0-0h2-2-2-|0--0-0--0-0--0-0--0-0h2-2/3-|
gtr 1 (Rythm)
|----------------------------|----------------------------||----------------------------|----------------------------||----------------------------|----------------------------||----------------------------|----------------------------||0--0-0--0-0--0-0--0-0h2-2-2-|0--0-0--0-0--0-0--0-0h3-3-3-||0--0-0--0-0--0-0--0-0h2-2-2-|0--0-0--0-0--0-0--0-0h3-3-3-|
|----------------------------|----------------------------|------------||----------------------------|----------------------------|------------||----------------------------|----------------------------|--1---------||----------------------------|----------------------------|--0---------||0--0-0--0-0--0-0--0-0h2-2-2-|0--0-0--0-0--0-0--0-0h2-2/3-|------------||0--0-0--0-0--0-0--0-0h2-2-2-|0--0-0--0-0--0-0--0-0h2-2/3-|------------|
gtr 2 (Solo) w/ wah
|--------------------------------------------------------------10-------10-||-----------------------------------------------------------------13p10----||12^^---10----x--10--------------------------------------12^^--------------||-------------x------12-10h12p10----------------------x--------------------||--------------------------------12-10-12-11-10\8^^r--x--------------------||--------------------------------------------------------------------------|
|--------------------------------------10h13p10-13-13-13-13-13/16-16-16-16-||13p10------------------------------------------12-12-12-12-12/15-15-15-15-||------13-/13-13-13-13-13-13-13--12^^--------------------------------------||---------/12-12-12-12-12-12-12--------------------------------------------||--------------------------------------------------------------------------||--------------------------------------------------------------------------|
|16/19-19-19-19-19-19-19\------------------------------------||15/18-18-18-18-18-18-18\------------------------------------||------------------------------1-----(1)---------------------| end of|------------------------------0-----(0)---------------------| Solo 2|------------------------------------------------------------||------------------------------------------------------------| fdbk.
Tab Legend ----------- (n) note is still ringing fdbk. feedback / slide up \ slide down NH natrual harmonic PH pinch harmonic x muted string h hammer on p pull off ^ bend half step ^^ bend one full step ^^^^ bend two full steps r release This song is really hard. The song is ok, but you might have a little trouble trying to play the verses.
Tap to rate this tab
 
# A B C D E F G H I J K L M N O P Q R S T U V W X Y Z