Godsmack - I Fucking Hate You tab

I Fucking Hate You
-------------------

song-  I Fucking Hate You
band-  Godsmack
album- Faceless
year-  2003


Drop C (C G C F)


Intro

|------------------|------------------||------------------|------------------||------------------|------------------||0--0--------------|0--0--------------|
|------------------|------------------------------||------------------|------------------------------||------------------|------------------------------||0-0-0-------------|0--0--0-3-3-0-5-5-0-6-6-0-5-5-|
|------------------------------|------------------------------||------------------------------|------------------------------||------------------------------|------------------------------||0--0--0-3-3-0-5-5-0-6-6-0-5-5-|0--0--0-3-3-0-5-5-0-6-6-0-5-5-|
|-------------------------------|------------------------------||-------------------------------|------------------------------||-------------------------------|------------------------------||0-0-0--0-3-3-0-5-5-0-6-6-0-5-5-|0--0--0-3-3-0-5-5-0-6-6-0-5-5-|
|------------------------------|------------------------------||------------------------------|------------------------------||------------------------------|------------------------------||0--0--0-3-3-0-5-5-0-6-6-0-5-5-|0--0--0-3-3-0-5-5-0-6-6-0-5-5-|
|-------------------------------|------------------------------||-------------------------------|------------------------------||-------------------------------|------------------------------||0-0-0--0-3-3-0-5-5-0-6-6-0-5-5-|0--0--0-3-3-0-5-5-0-6-6-0-5-5-|
Verse 1 /-------------------------------------2x----------------------------\
|-------------------|----------------|---------------|----------------||-------------------|----------------|---------------|----------------||-------------------|----------------|---------------|----------------||0--0---------------|0--0------------|0--0-----------|0--0------------|
Pre-Chorus 1
|----------------------|-----------------------||----------------------|-----------------------||----------------------|-----------------------||0--0-0--0--0--0-0-0-0-|6--6-6--6--6--6-6-6-6--|
|----------------------|----------------------------||----------------------|----------------------------||----------------------|----------------------------||0--0-0--0--0--0-0-0-0-|0-6---0-6---0-6---0-6-6-6-6-|
|----------------------|-----------------------||----------------------|-----------------------||----------------------|-----------------------||0--0-0--0--0--0-0-0-0-|6--6-6--6--6--6-6-6-6--|
|----------------------|----------------------------||----------------------|----------------------------||----------------------|----------------------------||0--0-0--0--0--0-0-0-0-|0-6---0-6---0-6---0-6-6-6-6-|
Chorus 1
|------------------------------|------------------------------||------------------------------|------------------------------||------------------------------|------------------------------||0--0--0-3-3-0-5-5-0-6-6-0-5-5-|0--0--0-3-3-0-5-5-0-6-6-0-5-5-|
|------------------------------|-------------------------------||------------------------------|-------------------------------||------------------------------|-------------------------------||0--0--0-3-3-0-5-5-0-6-6-0-5-5-|0-0-0--0-3-3-0-5-5-0-6-6-0-5-5-|
Verse 2 /-------------------------------------2x----------------------------\
|-------------------|----------------|---------------|----------------||-------------------|----------------|---------------|----------------||-------------------|----------------|---------------|----------------||0--0---------------|0--0------------|0--0-----------|0--0------------|
Pre-Chorus 2
|----------------------|-----------------------||----------------------|-----------------------||----------------------|-----------------------||0--0-0--0--0--0-0-0-0-|6--6-6--6--6--6-6-6-6--|
|----------------------|----------------------------||----------------------|----------------------------||----------------------|----------------------------||0--0-0--0--0--0-0-0-0-|0-6---0-6---0-6---0-6-6-6-6-|
|----------------------|-----------------------||----------------------|-----------------------||----------------------|-----------------------||0--0-0--0--0--0-0-0-0-|6--6-6--6--6--6-6-6-6--|
|----------------------|----------------------------||----------------------|----------------------------||----------------------|----------------------------||0--0-0--0--0--0-0-0-0-|0-6---0-6---0-6---0-6-6-6-6-|
Chorus 2
|------------------------------|------------------------------||------------------------------|------------------------------||------------------------------|------------------------------||0--0--0-3-3-0-5-5-0-6-6-0-5-5-|0--0--0-3-3-0-5-5-0-6-6-0-5-5-|
|------------------------------|-------------------------------||------------------------------|-------------------------------||------------------------------|-------------------------------||0--0--0-3-3-0-5-5-0-6-6-0-5-5-|0-0-0--0-3-3-0-5-5-0-6-6-0-5-5-|
|------------------------------|------------------------------||------------------------------|------------------------------||------------------------------|------------------------------||0--0--0-3-3-0-5-5-0-6-6-0-5-5-|0--0--0-3-3-0-5-5-0-6-6-0-5-5-|
|------------------------------|-------------------------------||------------------------------|-------------------------------||------------------------------|-------------------------------||0--0--0-3-3-0-5-5-0-6-6-0-5-5-|0-0-0--0-3-3-0-5-5-0-6-6-0-5-5-|
Bridge
|--------------------------------||--------------------------------||--------------------------------||0-------------------------------|
/-------------------------------------2x----------------------------\
|-------------------|----------------|---------------|----------------||-------------------|----------------|---------------|----------------||-------------------|----------------|---------------|----------------||0--0---------------|0--0------------|0--0-----------|0--0------------|
Pre-Chorus 3
|----------------------|-----------------------||----------------------|-----------------------||----------------------|-----------------------||0--0-0--0--0--0-0-0-0-|6--6-6--6--6--6-6-6-6--|
|----------------------|----------------------------||----------------------|----------------------------||----------------------|----------------------------||0--0-0--0--0--0-0-0-0-|0-6---0-6---0-6---0-6-6-6-6-|
|----------------------|-----------------------||----------------------|-----------------------||----------------------|-----------------------||0--0-0--0--0--0-0-0-0-|6--6-6--6--6--6-6-6-6--|
|----------------------|----------------------------||----------------------|----------------------------||----------------------|----------------------------||0--0-0--0--0--0-0-0-0-|0-6---0-6---0-6---0-6-6-6-6-|
Chorus 3
|------------------------------|------------------------------||------------------------------|------------------------------||------------------------------|------------------------------||0--0--0-3-3-0-5-5-0-6-6-0-5-5-|0--0--0-3-3-0-5-5-0-6-6-0-5-5-|
|------------------------------|-------------------------------||------------------------------|-------------------------------||------------------------------|-------------------------------||0--0--0-3-3-0-5-5-0-6-6-0-5-5-|0-0-0--0-3-3-0-5-5-0-6-6-0-5-5-|
|------------------------------|------------------------------||------------------------------|------------------------------||------------------------------|------------------------------||0--0--0-3-3-0-5-5-0-6-6-0-5-5-|0--0--0-3-3-0-5-5-0-6-6-0-5-5-|
|------------------------------|-------------------------------||------------------------------|-------------------------------||------------------------------|-------------------------------||0--0--0-3-3-0-5-5-0-6-6-0-5-5-|0-0-0--0-3-3-0-5-5-0-6-6-0-5-5-|
Outro
|------------------------------|------------------------------||------------------------------|------------------------------||------------------------------|------------------------------||0--0--0-3-3-0-5-5-0-6-6-0-5-5-|0--0--0-3-3-0-5-5-0-6-6-0-5-5-|
|-------------------------------|------------------------------||-------------------------------|------------------------------||-------------------------------|------------------------------||0-0-0--0-3-3-0-5-5-0-6-6-0-5-5-|0--0--0-3-3-0-5-5-0-6-6-0-5-5-|
|------------------------------|------------------------------||------------------------------|------------------------------||------------------------------|------------------------------||0--0--0-3-3-0-5-5-0-6-6-0-5-5-|0--0--0-3-3-0-5-5-0-6-6-0-5-5-|
|-------------------------------|------------------------------||-------------------------------|------------------------------||-------------------------------|------------------------------||0-0-0--0-3-3-0-5-5-0-6-6-0-5-5-|0--0--0-3-3-0-5-5-0-6-6-0-5-5-|
Tap to rate this tab
 
# A B C D E F G H I J K L M N O P Q R S T U V W X Y Z