Gojira - Mouth Of Kala tab

Gojira - Mouth of Kala
Tabbed by Dylon Syme(Dylon Kelly)
Tuning Drop B or Drop C

Mind you this may not be entirely correct. I learned what I have so far by ear and am 
still trying to figure out the rest, But for the most part I think this sounds pretty 
close to the song.

So here's what I have if it doesn't sound right to you by all means make your own 
version of tabs on this and post them.


[h]Hammer on
[p]Pull off


[0:00 - 0:57]Tremolo Picking(repeat)

|-------------------------------------------------------------------||-------------------------------------------------------------------||-------------------------------------------------------------------||-------------------------------------------------------------------||0000--22222222222222222222222-0-2-0-2-3333333-000000-555555-333333-||0000--22222222222222222222222-0-2-0-2-3333333-000000-555555-333333-|
|------------------------------------------------------------------||------------------------------------------------------------------||------------------------------------------------------------------||------------------------------------------------------------------||-0---22222222222222222222222-0-2-0-2-3333333-000000-555555-333333-||-0---22222222222222222222222-0-2-0-2-3333333-000000-555555-333333-|
[0:58- 1:37]Clean(repeat)
|-----------------||-----------------||-----------------||-----------------||--1h2-1h2-1h2-1h2||-3---2---0---2---|
[1:38-1:42]Tremolo
|-----------------------------------------------------||-----------------------------------------------------||-----------------------------------------------------||-----------------------------------------------------||-0---22222222222222222222222-5-5-5-5-5-5-555-555-555-||-0---22222222222222222222222-5-5-5-5-5-5-555-555-555-|
[1:43-2:11]Tremolo(repeat)
|------------------------------------------------------------------||------------------------------------------------------------------||------------------------------------------------------------------||------------------------------------------------------------------||-0---22222222222222222222222-0-2-0-2-3333333-000000-555555-333333-||-0---22222222222222222222222-0-2-0-2-3333333-000000-555555-333333-|
|-------------------------------------------------------------------||-------------------------------------------------------------------||-------------------------------------------------------------------||-------------------------------------------------------------------||0000--22222222222222222222222-0-2-0-2-3333333-000000-555555-333333-||0000--22222222222222222222222-0-2-0-2-3333333-000000-555555-333333-|
[2:12 - 2:47]Clean(Repeat)
|------------------||------------------||------------------||------------------||--1h2-1h2-1h2-1h2-||-3---2---0---2----|
[2:48 - 3:12]Clean(repeat)
|---------------------------------------||---------------------------------------||-----1~-----3-1h2p1--------------------||---------------------------------------||-1h2-----1h2-------2---1h2-1h2-1h2-1h2-||3-------2-------------3---2---0---2----|
[3:13 - 3:18]clean
|---------------------------------------||---------------------------------------||-----1~-----3-1h2p1--------------------||---------------------------------------||-1h2-----1h2-------2---1h2-1h2-1h2-1h2-||3-------2-------------3---2---0---2----|
[3:19 - 3:23]
|-----------------------------------------------------||-----------------------------------------------------||-----------------------------------------------------||-----------------------------------------------------||-0---22222222222222222222222-5-5-5-5-5-5-555-555-555-||-0---22222222222222222222222-5-5-5-5-5-5-555-555-555-|
[3:24 - 3:52]Tremolo(Repeat)
|------------------------------------------------------------------||------------------------------------------------------------------||------------------------------------------------------------------||------------------------------------------------------------------||-0---22222222222222222222222-0-2-0-2-3333333-000000-555555-333333-||-0---22222222222222222222222-0-2-0-2-3333333-000000-555555-333333-|
|-------------------------------------------------------------------||-------------------------------------------------------------------||-------------------------------------------------------------------||-------------------------------------------------------------------||0000--22222222222222222222222-0-2-0-2-3333333-000000-555555-333333-||0000--22222222222222222222222-0-2-0-2-3333333-000000-555555-333333-|
[3:53 - 4:00]
|---------------------------------------||---------------------------------------||-----1~-----3-1h2p1--------------------||---------------------------------------||-1h2-----1h2-------2---1h2-1h2-1h2-1h2-||3-------2-------------3---2---0---2----|
[4:01 - 4:27]Repeat
|------------------||------------------||------------------||------------------||--1h2-1h2-1h2-1h2-||-3---2---0---2----|
[4:28 - 4:30]
|-----------------------||-----------------------||-----------------------||---555555555-888888888-||-3-555555555-888888888-||-3---------------------|
[4:31 - 4:46]Repeat
|------------------------------------||------------------------------------||------------------------------------||----------------555555555-888888888-||-2---0---2-2--3-555555555-888888888-||-2---0---2-2--3---------------------|
[4:47 - 5:52]Repeat
|--------------------------||--------------------------||--------------------------||--------------------------||-2---0---2-2---1-2-1h2p1--||-2---0---2-2--3---2-----3-|
Tap to rate this tab
 
# A B C D E F G H I J K L M N O P Q R S T U V W X Y Z