Goo Goo Dolls – Broadway tab ver. 2

Tabbed & Arranged by: Josh Daley

Tuning: Db Ab Db Gb B Eb (Both Guitars)

Guitar 1: Tablature (Acoustic)
Guitar 2: Tablature (Acoustic/Electric)



Intro:

   Guitar 1:

--0----0----| --0----0----| --5----2----| x3 --5----2----| --3----0----| ------------|
--0--0--0--| --0--0--0--| --2--0--0--| --3--2--5--| --3--3--5--| --1--0--3--|
Guitar 2:
------------------------------------------------------| --------------------7----7----------------------------| ----------------4/5------5--5-7/9/7-5---5---5^7-5-----| --------------------------------------7~--7-------7-5-| ------------------------------------------------------| ------------------------------------------------------|
First Verse: Guitar 1:
--------0----------0-----------0--------0--------------0-----------0-----------0---------0----| -----------0----------0-----------0--------0--------------0-----------0---------------------0-| -----0----------0-----------0--------0--------0-----0-----------0-----------0---------0-------| ----------------------------------------------------------------------------------------------| --0----------------------------------------------3--------------------------------3-----------| -------------3-----------1-----------------------------------3-----------1--------------------|
--------0----------0-----------0--------0--------0--------0--------0----| -----------0----------0-----------0--------0--------0--------0-----0----| -----0----------0-----------0--------0--------0--------0--------0-----0-| ------------------------------------------------------------------------| --0---------------------------------------------------------------------| -------------3-----------1----------------------------------------------|
--------0-----------0-----------0--------0--------------0----------0----| -----------------------0-----------0--------0--------------0----------0-| -----0-----0-----0-----------0--------0--------0-----2-----------0----5-| --------------------------------------------------0-----------3---------| --0---------------------------------------------------------------------| --------------3-----------1---------------------------------------------|
First Interlude: Guitar 1:
--0----0----| --0----0----| --5----2----| x3 --5----2----| --3----0----| ------------|
--0--0--0--| --0--0--0--| --2--0--0--| --3--2--5--| --3--3--5--| --1--0--3--|
Guitar 2:
----------------8--------------------------| --7-----------7----------9---7---7--7------| ---------9/10------------x---x--10--9--5~~-| ------------------10----12--10-------------| -------------------------------------------| -------------------------------------------|
Second verse: Guitar 1:
--0----0----| --0----0----| --5----2----| x3 --5----2----| --3----0----| ------------|
--0--------| --0--------| --2--------| (Downstrokes only + Crescendo) --3--------| --3--------| --1--------|
--0----0----| --0----0----| --5----2----| x3 --5----2----| --3----0----| ------------|
--0--0--0--| --0--0--0--| --2--0--0--| --3--2--5--| --3--3--5--| --1--0--3--|
Guitar 2:
---------------8-----------8----| ---------------------------x----| -----------------12-------12----| ------------10------12^10-10----| --------------------------------| --------------------------------|
---------------------------8-------------------------------------------------------------| ---------------------------x---------------4------4-----5/7------9-7-5-------------------| ------------------9-------12-------7^5-----5------5-7^5-7/9-----10-9-7-------------------| -----------10-7--10-7-----10-----------7-5-----------------------------3-3-2-2-5--5-5--5-| -----------10----------10----------------------------------------------3-3-3-3-5--5-5--5-| -----------------------------------------------------------------------1-1-0-0-3--3-3--3-| (Palm Mute)
Pre Chorus: Guitar 1 & 2:
--0--------0--------| --0--------0--------| --0--------0--------| (Single strums only) --7--------3--------| --7--------3--------| --5--------1--------|
--0----0---x-| --0----0---x-| --0----0---x-| (Abrupt mute) --5----3---x-| --5----3---x-| --3----1---x-|
Chorus: Guitar 1 & 2:
--0--0--0-----| --0--0--0-----| --5--0--2-----| --5--5--3-----| --3--5--3-----| -----3--1-----|
--0---0---0--0--| --0---0---0--0--| --0---0---2--0--| --7---5---3--2--| --7---5---3--3--| --5---3---1-----| Guitar 2 Riff:
--0---0------------0--- -----------------------------| --0---0----------0-0--- --7^9--9^7--9--7^9--9-7------| --0---0--------0-0-0--- (Crescendo) ------------------------10-9-| --7---5--3-3-3-3-3-3--- -----------------------------| --7---5--3-3-3-3-3-3--- -----------------------------| --5---3--1-1-1-1-1-1--- -----------------------------|
--0---0---0----| --0---0---0----| --0---0---0----| --7---5---3----| --7---5---3----| --5---3---1----|
--0---0----| --0---0----| --0---2----| --7---3----| --7---3----| --5---1----|
Second Interlude: Guitar 1:
--0----0----| --0----0----| --5----2----| x3 --5----2----| --3----0----| ------------|
--0--0--0--| --0--0--0--| --2--0--0--| --3--2--5--| --3--3--5--| --1--0--3--|
Guitar 2:
------3-----3----3-----3-3------------3-------3---------------------| -----------------2--2--2-2^4^2^0--------------------5--4--2-2^4-2---| --/5-----5----5-----5-------------/5-----5--5----5-----5--5-5-----5-| --------------------------------------------------------------------| --------------------------------------------------------------------| --------------------------------------------------------------------|
Third verse: Guitar 1:
--0----0----| --0----0----| --5----2----| x3 --5----2----| --3----0----| ------------|
--0--------| --0--------| --2--------| (Downstrokes only + Crescendo) --3--------| --3--------| --1--------|
--0----0----| --0----0----| --5----2----| x3 --5----2----| --3----0----| ------------|
--0--0--0--| --0--0--0--| --2--0--0--| --3--2--5--| --3--3--5--| --1--0--3--|
Guitar 2:
---------------------------------------------------| ----------------7-7--------------------------7---7-| ----------------5-7----------------------5---7b8-5-| ---------------------5-----------5-5-5^7-----------| ---------------------------3-5/7-------------------| -----------------------3^5-------------------------|
----------------------------------------------8--------8-----------| ------------------5-5-5---------------------7----------7-----------| ------------------7-7-7--9---9---------9^10-----9^10-----------7/9-| ------------------------10--10-------------------------------------| -------------------------------------------------------------------| -------------------------------------------------------------------|
Solo: Guitar 1:
--0----0----| --0----0----| --5----2----| x2 --5----2----| --3----0----| ------------|
--0----0----0----0----| --0----0----0----0----| --0----0----0----0----| --7----3----7----3----| --7----3----7----3----| --5----1----5----1----|
Guitar 2:
--3------------------------------3-----------------------------| ------4---2-4---5---4---2--4-2-------4---2-4---5---4---2--4-/5-| ----5---5-----5---5---5--------5---5---5-----5---5---5---------| ---------------------------------------------------------------| ---------------------------------------------------------------| ---------------------------------------------------------------|
--------------------------------------------8-10-10--10/12-----| --5^4-5--------------5--5----9-7--5--7--11--7--9--7---7/-9-----| ------5--7^5---------5--7---10-9--7--9--12---------------------| -------------7-5--7--------------------------------------------| ---------------------------------------------------------------| ---------------------------------------------------------------|
Final Pre-chorus: Guitar 1:
--0--------0--------| --0--------0--------| --0--------0--------| (Single strums only) --7--------3--------| --7--------3--------| --5--------1--------|
--0----0---x-| --0----0---x-| --0----0---x-| (Abrupt mute) --5----3---x-| --5----3---x-| --3----1---x-|
Guitar 2: (start on the 8th bar of the pre-chorus)
--15-------15-------------------------8------8-8---8---------------------------------------------|-----12-12----12--11--12^11-----------7^9----9-7---7----------------------------------5--5-------|----------------------------14~-12--------9------9----9--9/7-7/5----------------5-5^7-7--7^5-----|-----------------------------------14---------------------------------------5/7--------------7^5-|---------------------------------------------------------------------3--5/7----------------------|-----------------------------------------------------------------3/5-----------------------------|
Final Chorus: Guitar 1 & 2:
--0--0--0-----| --0--0--0-----| --5--0--2-----| --5--5--3-----| --3--5--3-----| -----3--1-----|
--0---0---0--0--| --0---0---0--0--| --0---0---2--0--| --7---5---3--2--| --7---5---3--3--| --5---3---1-----| Guitar 2 Riff:
--0---0------------0--- -----------------------------| --0---0----------0-0--- --7^9--9^7--9--7^9--9-7------| --0---0--------0-0-0--- (Crescendo) ------------------------10-9-| --7---5--3-3-3-3-3-3--- -----------------------------| --7---5--3-3-3-3-3-3--- -----------------------------| --5---3--1-1-1-1-1-1--- -----------------------------|
--0---0---0----| --0---0---0----| --0---0---0----| --7---5---3----| --7---5---3----| --5---3---1----|
--0---0----| --0---0----| --0---2----| --7---3----| --7---3----| --5---1----|
--0--0--0----| --0--0--0----| --7--2--0----| --7--3--2----| --5--3--3----| -----1-------| (let Ring)
Please rate this tab:
x1.0