Goo Goo Dolls - Fallin Down tab

Pretty easy song that can mostly be played on one guitar.



Standard Tuning


Intro:

|-----0----------------------------0--------0-----------------||--0--0---0---0/0-0-0-0--0------0--0---0-0--0--0---0-0-0-0----||--6-(9)--4---4/6-6-6-6--2------6-(9)--4-4-(9)-2---2-2-2-4----||--6-(9)--4---4/6-6-6-6--2------6-(9)--4-4-(9)-2---2-2-2-4----||--4-(7)--2---2/4-4-4-4--0------4-(7)--2-2-(7)-0---0-0-0-2----||-------------------------------------------------------------|
|-----0----------------------------0-------------0~-----------||--0--0---0---0/0-0-0-0--0------0--0---0-0-0-0---0~-----------||--6-(9)--4---4/6-6-6-6--2------6-(9)--4-4-4-4---1~-----------||--6-(9)--4---4/6-6-6-6--2------6-(9)--4-4-4-4---2~-----------||--4-(7)--2---2/4-4-4-4--0------4-(7)--2-2-2-2---2~-----------||------------------------------------------------0~-----------|
|--0--0---0---0/0-0-0-0--0------0--0---0-0--0--0---0-0-0-0----||--0--0---0---0/0-0-0-0--0------0--0---0-0--0--0---0-0-0-0----||--6-(9)--4---4/6-6-6-6--2------6-(9)--4-4-(9)-2---2-2-2-4----||--6-(9)--4---4/6-6-6-6--2------6-(9)--4-4-(9)-2---2-2-2-4----||--4-(7)--2---2/4-4-4-4--0------4-(7)--2-2-(7)-0---0-0-0-2----||-------------------------------------------------------------|
|--0--0---0---0/0-0-0-0--0------0--0---0-0-0-0---0~-----------||--0--0---0---0/0-0-0-0--0------0--0---0-0-0-0---0~-----------||--6-(9)--4---4/6-6-6-6--2------6-(9)--4-4-4-4---1~-----------||--6-(9)--4---4/6-6-6-6--2------6-(9)--4-4-4-4---2~-----------||--4-(7)--2---2/4-4-4-4--0------4-(7)--2-2-2-2---2~-----------||------------------------------------------------0~-----------|
Verse:
|-----------------------------------------------------------------------------------||--0--0-------0--0-------------------------0-----------------0--0-------0--0--------||--4--4----4--6--6---6---------------------x------------2-2--4--4----4--6--6---6----||--4--4----4--6--6---6------6--6-6-6-6-6---7--7\--------2-2--4--4----4--6--6---6----||--2--2----2--4--4---4------6--6-6-6-6-6---7--7\--------0-0--2--2----2--4--4---4----||---------------------------4--4-4-4-4-4---5--5\------------------------------------|
Pre-Chorus:
|--0-0-0-0-0-0-0-0-0-0-0-0-------------------------------||--0-0-0-0-0-0-0-0-0-0-0-0----0-0-0-0-0-0-0-0-0-0-0-0----||--9-9-9-8-8-8-8-8-8-8-8-8----x-x-x-x-x-x-x-x-x-x-x-x----| (x2)|--9-9-9-9-9-9-9-9-9-9-9-9----7-7-7-7-7-7-7-7-7-7-7-7----||--7-7-7-7-7-7-7-7-7-7-7-7----7-7-7-7-7-7-7-7-7-7-7-7----||-----------------------------5-5-5-5-5-5-5-5-5-5-5-5----|
Chorus:
|--0--0---0---0/0-0-0-0--0------0--0---0-0--0--0---0-0-0-0----||--0--0---0---0/0-0-0-0--0------0--0---0-0--0--0---0-0-0-0----||--6-(9)--4---4/6-6-6-6--2------6-(9)--4-4-(9)-2---2-2-2-4----||--6-(9)--4---4/6-6-6-6--2------6-(9)--4-4-(9)-2---2-2-2-4----||--4-(7)--2---2/4-4-4-4--0------4-(7)--2-2-(7)-0---0-0-0-2----||-------------------------------------------------------------|
|--0--0---0---0/0-0-0-0--0------0--0---0-0-0-0---0~-----------||--0--0---0---0/0-0-0-0--0------0--0---0-0-0-0---0~-----------||--6-(9)--4---4/6-6-6-6--2------6-(9)--4-4-4-4---1~-----------||--6-(9)--4---4/6-6-6-6--2------6-(9)--4-4-4-4---2~-----------||--4-(7)--2---2/4-4-4-4--0------4-(7)--2-2-2-2---2~-----------||------------------------------------------------0~-----------|
Verse:
|-----------------------------------------------------------------------------------||--0--0-------0--0-------------------------0-----------------0--0-------0--0--------||--4--4----4--6--6---6---------------------x------------2-2--4--4----4--6--6---6----||--4--4----4--6--6---6------6--6-6-6-6-6---7--7\--------2-2--4--4----4--6--6---6----||--2--2----2--4--4---4------6--6-6-6-6-6---7--7\--------0-0--2--2----2--4--4---4----||---------------------------4--4-4-4-4-4---5--5\------------------------------------|
Pre-Chorus:
|--0-0-0-0-0-0-0-0-0-0-0-0-------------------------------||--0-0-0-0-0-0-0-0-0-0-0-0----0-0-0-0-0-0-0-0-0-0-0-0----||--9-9-9-8-8-8-8-8-8-8-8-8----x-x-x-x-x-x-x-x-x-x-x-x----| (x2)|--9-9-9-9-9-9-9-9-9-9-9-9----7-7-7-7-7-7-7-7-7-7-7-7----||--7-7-7-7-7-7-7-7-7-7-7-7----7-7-7-7-7-7-7-7-7-7-7-7----||-----------------------------5-5-5-5-5-5-5-5-5-5-5-5----|
Chorus:
|--0--0---0---0/0-0-0-0--0------0--0---0-0--0--0---0-0-0-0----||--0--0---0---0/0-0-0-0--0------0--0---0-0--0--0---0-0-0-0----||--6-(9)--4---4/6-6-6-6--2------6-(9)--4-4-(9)-2---2-2-2-4----||--6-(9)--4---4/6-6-6-6--2------6-(9)--4-4-(9)-2---2-2-2-4----||--4-(7)--2---2/4-4-4-4--0------4-(7)--2-2-(7)-0---0-0-0-2----||-------------------------------------------------------------|
|--0--0---0---0/0-0-0-0--0------0--0---0-0-0-0---0~-----------||--0--0---0---0/0-0-0-0--0------0--0---0-0-0-0---0~-----------||--6-(9)--4---4/6-6-6-6--2------6-(9)--4-4-4-4---1~-----------||--6-(9)--4---4/6-6-6-6--2------6-(9)--4-4-4-4---2~-----------||--4-(7)--2---2/4-4-4-4--0------4-(7)--2-2-2-2---2~-----------||------------------------------------------------0~-----------|
Bridge:
Gtr.1|--------0-0-0-0-0--0--0-0----||--------4-4h5p4-0--4-h5-5----||--6-6------------------------||--6-6------------------------||--4-4------------------------||-----------------------------|
(x4)Gtr. 2|-----------------------------||-------------------0----0----||--6-6--------------4----2----||--6-6--------------4----2----||--4-4--------------2----0----||-----------------------------|
Gtr. 1|--0--0---0--0----0~----------||--5--4---7--5----5~----------||-----------------------------||-----------------------------||-----------------------------||-----------------------------|
Gtr 2.|-----------------0~----------||--0--0---0--0----0~----------||--4--2---4--2----1~----------||--4--2---4--2----2~----------||--2--0---2--0----2~----------||-----------------0~----------|
Solo
Gtr 1.|---------9-9----------9-9-----------9---------9-------------------------||---------9-9----------9-9-----------------------------------------------||--11/13--------11/13--------11/13------11/13-----11/13\11--9b-----------||------------------------------------------------------------------------||------------------------------------------------------------------------||------------------------------------------------------------------------|
Gtr 2.|--0-------0-------------0--------0/0-----0--0--0-----------0------------||--0-------0-------------0--------0/0-----0--0--0-----------0------------||--6------(9)------------4--------4/6-----6--6--6-----------2------------||--6------(9)------------4--------4/6-----6--6--6-----------2------------||--4------(7)------------2--------2/4-----4--4--4-----------0------------||------------------------------------------------------------------------|
Gtr 1.|------------------------------------------------------------------------||------------------------------------------------------------------------||--8/9----8--------------8--9----9/11--9-----------9-9-9-9-9-------------||---------------9--------------------------------------------------------||------------------------------------------------------------------------||------------------------------------------------------------------------|
Gtr 2.|--0-------0-------------0--0-----0--0---------------0--0--0----0--------||--0-------0-------------0--0-----0--0---------------0--0--0----0--------||--6------(9)------------4--4----(9)-2---------------2--2--2----4--------||--6------(9)------------4--4----(9)-2---------------2--2--2----4--------||--4------(7)------------2--2----(7)-0---------------0--0--0----2--------||------------------------------------------------------------------------|
Gtr. 1|-------------------------------------12-14-12-14/16\14\12---------------||-------12--14--12--14--12-------/14------------------------14-----------||--/13-------------------------------------------------------------------||------------------------------------------------------------------------||------------------------------------------------------------------------||------------------------------------------------------------------------|
Gtr 2.|--0-------0-------------0--------0/0-----0--0--0-----------0------------||--0-------0-------------0--------0/0-----0--0--0-----------0------------||--6------(9)------------4--------4/6-----6--6--6-----------2------------||--6------(9)------------4--------4/6-----6--6--6-----------2------------||--4------(7)------------2--------2/4-----4--4--4-----------0------------||------------------------------------------------------------------------|
Gtr. 1|------12----14/16\14\12-----------------12-----------------12~----------||--/14-------------------------14----------------------------------------||------------------------------------------------------------------------||------------------------------------------------------------------------||------------------------------------------------------------------------||------------------------------------------------------------------------|
Gtr 2.|--0------0--------------0--------0--0--0--0----------------0~-----------||--0------0--------------0--------0--0--0--0----------------0~-----------||--6-----(9)-------------4--------4--4--4--4----------------1~-----------||--6-----(9)-------------4--------4--4--4--4----------------2~-----------||--4-----(7)-------------2--------2--2--2--2----------------2~-----------||-----------------------------------------------------------0~-----------|
Pre-Chorus:
|--0-0-0-0-0-0-0-0-0-0-0-0-------------------------------||--0-0-0-0-0-0-0-0-0-0-0-0----0-0-0-0-0-0-0-0-0-0-0-0----||--9-9-9-8-8-8-8-8-8-8-8-8----x-x-x-x-x-x-x-x-x-x-x-x----| (x2)|--9-9-9-9-9-9-9-9-9-9-9-9----7-7-7-7-7-7-7-7-7-7-7-7----||--7-7-7-7-7-7-7-7-7-7-7-7----7-7-7-7-7-7-7-7-7-7-7-7----||-----------------------------5-5-5-5-5-5-5-5-5-5-5-5----|
Chorus:
|--0--0---0---0/0-0-0-0--0------0--0---0-0--0--0---0-0-0-0----||--0--0---0---0/0-0-0-0--0------0--0---0-0--0--0---0-0-0-0----||--6-(9)--4---4/6-6-6-6--2------6-(9)--4-4-(9)-2---2-2-2-4----||--6-(9)--4---4/6-6-6-6--2------6-(9)--4-4-(9)-2---2-2-2-4----||--4-(7)--2---2/4-4-4-4--0------4-(7)--2-2-(7)-0---0-0-0-2----||-------------------------------------------------------------|
|--0--0---0---0/0-0-0-0--0------0--0---0-0-0-0---0~-----------||--0--0---0---0/0-0-0-0--0------0--0---0-0-0-0---0~-----------||--6-(9)--4---4/6-6-6-6--2------6-(9)--4-4-4-4---1~-----------||--6-(9)--4---4/6-6-6-6--2------6-(9)--4-4-4-4---2~-----------||--4-(7)--2---2/4-4-4-4--0------4-(7)--2-2-2-2---2~-----------||------------------------------------------------0~-----------|
Outro:
|--0-0-0----0-0-0-0----0-0-0----0-0-0-0----||--0-0-0----0-0-0-0----0-0-0----0-0-0-0----||--x-x-x----x-x-x-x----6-6-6----4-4-4-4----| (x4)|--6-6-6----7-7-7-7----6-6-6----4-4-4-4----||--6-6-6----7-7-7-7----4-4-4----2-2-2-2----||--4-4-4----5-5-5-5------------------------|
|--0~----||--0~----||--1~----||--2~----||--2~----||--0~----|
Tap to rate this tab
 
# A B C D E F G H I J K L M N O P Q R S T U V W X Y Z