Gorerotted – Gagged Shagged And Bodybagged tab

-------------------------------------------------------------------------------
	        Gagged, Shagged and Bodybagged by: Gorerotted
-------------------------------------------------------------------------------
Tabbed by: Marc Tasikas
Email: west.staines.massive@hotmail.com

Tuning: Drop D

| h hammer-on| p pull-off| * Mute note X8|---------------------------------------------||---------------------------------------------||---------------------------------------------||-1-1--6-----1-1--6----1-1--6-----------------||-1-1--6-----1-1--6----1-1--6----1p0h1p0h1p0--||-1-1--6-----1-1--6----1-1--6-----------------| * * * * * *
X4|-------------------------------------------------------------------||-------------------------------------------------------------------||-------------------------------------------------------------------||-------------------------------------------------------------------||--2p0h2p0h2p0h2p0h2p0h2p0h2p0h2p0-4p0h4p0h4p0h4p0h4p0h4p0h4p0h4p0--||-------------------------------------------------------------------|
X2|-------------------------------------------------------------------||-------------------------------------------------------------------||-------------------------------------------------------------------||--------------------------------------5------5------5----5-5-------||--2p0h2p0h2p0h2p0h2p0h2p0h2p0h2p0--4-5----4-5----4-5----4----------||-------------------------------------------------------------------| * * * * * * *
|---------------------------------(1)---------||---------------------------------(1)---------||---------------------------------------------||----------------------------2-1-2-1----------||----------------------------2-1-2-1----------||-55445544-22112211-55445544-2-1-2-1----------| 1's and 2's * * * *
|----------------------------------(1)-----| \|----------------------------------(1)-----| \|------------------------------------------| \|------------------------------------------| ||------------------------------------------| ||-55445544-22112211-55445544-2211221-------| |
X2 |---------------------------------(1)------| ||---------------------------------(1)------| ||------------------------------------------| | |----------------------------2-1-2-1-------| /|----------------------------2-1-2-1-------| /|-55445544-22112211-55445544-2-1-2-1-------| / * * * *
Not sure about this part V X4|---------(6)------------------(6)---------||---------(6)------------------(6)---------||------------------------------------------||-55-7-5-6--------------55-7-5-6-----------||-55-7-5-6--------------55-7-5-6-----------||-55-7-5-6--------------55-7-5-6-----------|
|----------------------------------(1)-----| \|----------------------------------(1)-----| \|------------------------------------------| \|------------------------------------------| ||------------------------------------------| ||-55445544-22112211-55445544-2211221-------| |
X2 |---------------------------------(1)------| ||---------------------------------(1)------| ||------------------------------------------| | |----------------------------2-1-2-1-------| /|----------------------------2-1-2-1-------| /|-55445544-22112211-55445544-2-1-2-1-------| / * * * *
X8|---------------------------------------------||---------------------------------------------||---------------------------------------------||-1-1--6-----1-1--6----1-1--6-----------------||-1-1--6-----1-1--6----1-1--6----1p0h1p0h1p0--||-1-1--6-----1-1--6----1-1--6-----------------| * * * * * *
X4|-------------------------------------------------------------------||-------------------------------------------------------------------||-------------------------------------------------------------------||-------------------------------------------------------------------||--2p0h2p0h2p0h2p0h2p0h2p0h2p0h2p0-4p0h4p0h4p0h4p0h4p0h4p0h4p0h4p0--||-------------------------------------------------------------------|
X2|-------------------------------------------------------------------||-------------------------------------------------------------------||-------------------------------------------------------------------||--------------------------------------5------5------5----5-5-------||--2p0h2p0h2p0h2p0h2p0h2p0h2p0h2p0--4-5----4-5----4-5----4----------||-------------------------------------------------------------------| * * * * * * *
X4 /This is while the chick in the backgrund is screaming\|-------------------|---------------||-------------------|---------------||-------------------|---------------||-------------------|---------------||--3h2-3h2----------|--5h4-5h4------||-------------------|---------------| \ Pick these X amount of times each as fast as possible /
|----------------------------------(1)-----| \|----------------------------------(1)-----| \|------------------------------------------| \|------------------------------------------| ||------------------------------------------| ||-55445544-22112211-55445544-2211221-------| |
X2 |---------------------------------(1)------| ||---------------------------------(1)------| ||------------------------------------------| | |----------------------------2-1-2-1-------| /|----------------------------2-1-2-1-------| /|-55445544-22112211-55445544-2-1-2-1-------| / * * * *
Not sure about this part V X4|---------(6)------------------(6)---------||---------(6)------------------(6)---------||------------------------------------------||-55-7-5-6--------------55-7-5-6-----------||-55-7-5-6--------------55-7-5-6-----------||-55-7-5-6--------------55-7-5-6-----------|
End on|---||---||---||-0-||-0-||-0-| *Homepage:http://www.gorerotted.com/page/index.html
Please rate this tab:
x1.0