Gorerotted - Horrorday In Haiti tab

Band: Gorerotted
Album: A New Dawn for the Dead
Song: Horrorday In Haiti
Record Label: Metal Blade
Tuning: D G C F A D

--------------|--------------|--------------|--------------|-4-7-3-6-7-3--|-2-5-1-4-5-1--|X4pm . . . . .
------------------------|-7-10-9-6-9*trill*10-6--|------------------------|------------------------|------------------------|------------------------|X4
--------------|--------------|--------------|--------------|-4-7-3-6-7-3--|-2-5-1-4-5-1--|X4pm . . . . .
------------------------|-7-10-9-6-9*trill*10-6--|------------------------|------------------------|------------------------|------------------------|X4
---------------|---------------|---------------|---------------|-4343-4-3-4-3--|------2-1-2-1--|X4
pm . . .-----------------------|-----------------------|-----------------------|-----------------------|-434343434343-4-3-4-3--|--------------2-1-2-1--|X2pm . . .
----------------------------------------------------------|----------------------------------------------------------|----------------------------------------------------------|----------------------------------------------------------|--4--4-3---3-2---2-1-------4---4-4-3---3-2---2-1*trill*2--|-2-5-----4-----3-----2-0-2---5-------4-----3--------------|X2pm .
---------------|---------------|---------------|---------------|-4343-4-3-4-3--|------2-1-2-1--|X4
pm . . .-----------------------|-----------------------|-----------------------|-----------------------|-434343434343-4-3-4-3--|--------------2-1-2-1--|X2pm . . .
----------------------------------------------------------|----------------------------------------------------------|----------------------------------------------------------|----------------------------------------------------------|--4---4-3---3-2---2-1-------4---4-4-3---3-2---2-1*trill*2-|-2-5-----4-----3-----2-0-2---5-------4-----3--------------|X4pm .
-------------------------------------------------|----------------------8-7------------------------|------------------4-5-----6-5--------------------|-4--7-6-3--7-6-4--------------5-4----------------|----------------------------------3-4-3*trill*4--|-------------------------------------------------|
--------------|--------------|--------------|--------------|-4-7-3-6-7-3--|-2-5-1-4-5-1--|X4pm . . . . .
------------------------|-7-10-9-6-9*trill*10-6--|------------------------|------------------------|------------------------|------------------------|X4
--------------|--------------|--------------|--------------|-4-7-3-6-7-3--|-2-5-1-4-5-1--|X4pm . . . . .
---------------|---------------|---------------|---------------|-4343-4-3-4-3--|------2-1-2-1--|X4pm . . .
-----------------------|-----------------------|-----------------------|-----------------------|-434343434343-4-3-4-3--|--------------2-1-2-1--|pm . . .
--------------------------------------|--------------------------------------|--------------------------------------|--------------------------------------|-434343434343-4-6-7-3-4----4-6-7-3-4--|--------------2-4-5-1-2----2-4-5-1-2--|pm . . . . . . . . .
Tap to rate this tab
 
# A B C D E F G H I J K L M N O P Q R S T U V W X Y Z