Gorguts – Testimonial Ruin tab

.  - palm mute           /  - slide up to
\  - slide down to       ~  - vibrato
h  - hammer on           b  - Bend
p  - pull off            Suffixes for bend
t  - tap                 f  - full bend    h - half bend
ph - Pinch Harmonic      q  - quarter bend t - tap bend
*  - see comment         ^  - Hold bend    r release bend
x  - Stuccatto           ~  - vibrato bend
,  - slight palm mute   ( ) - ghost note, sustained note
"  - tremolo note        r  - let note ring
px- Pull off to muted note
<  - Volume swell +      >  - Volume swell -

Left Guitar - Left Channel
Right Guitar - Right Channel
Third Guitar - Feedback chords
--------------------------------------------------------------------------------
t=134

0:00 x8|--------------------------------------------||--------------------------------------------||-------7r----(7)----------------------------||--------------------------------------------||---4/5-5r----(5)----------------------------||--------------------------------------------|
| ||--------------------------------------------||--------------------------------------------||---8-8/(12)---12----12----12----12---14\----||--------------------------------------------||-6---6/(10)---10----10----10----10---12\----||--------------------------------------------|
0:27|----------------------------------------|----------------------------------------|-------3/4/5.--------3/6-6--7\6----h8ph-|-(2)------------------------------------|----1--1/2/2.--2p=1--1/4-4--5\4-(5)-----|--1p0----------0r(0)-------------5------
------------------------------------|------------------------------------|-------3/4/5.--------3/6-6--7\6-----|-(2)--------------------------------|----1--1/2/2.--2p=1--1/4-4--5\4-(5)-|--1p0----------0r(0)-------------5--|
0:34 x8|--------------------------------------------||--------------------------------------------||-------7r----(7)----------------------------||--------------------------------------------||---4/5-5r----(5)----------------------------||--------------------------------------------|
| ||--------------------------------------------||--------------------------------------------||---8-8/(12)---12----12----12----12---14\----||--------------------------------------------||-6---6/(10)---10----10----10----10---12\----||--------------------------------------------|
0:47|----------------------------------------|----------------------------------------|-------3/4/5.--------3/6-6--7\6----h8ph-|-(2)------------------------------------|----1--1/2/2.--2p=1--1/4-4--5\4-(5)-----|--1p0----------0r(0)-------------5------
|
|----------------------------------------|----------------------------------------|-------3/4/5.--------3/6-6--7\6----h8ph-|-(2)------------------------------------|----1--1/2/2.--2p=1--1/4-4--5\4-(5)-----|--1p0----------0r(0)-------------5------
|
|-<14r-----------------------------------|----------------------------------------|-<12r-----------------------------------|----------------------------------------|----------------------------------------|----------------------------------------
x2------------------------------------|------------------------------------|-------3/4/5.--------3/6-6--7\6-----|-(2)--------------------------------|----1--1/2/2.--2p=1--1/4-4--5\4-(5)-|--1p0----------0r(0)-------------5--|
|
------------------------------------|------------------------------------|-------3/4/5.--------3/6-6--7\6-----|-(2)--------------------------------|----1--1/2/2.--2p=1--1/4-4--5\4-(5)-|--1p0----------0r(0)-------------5--|
|
-(14)-------------------------------|------------------------------------|-(12)-------------------------------|------------------------------------|------------------------------------|------------------------------------|
1:01 x2|--------------------------------------------------------||--------------------------------------------------------||-(1)-2\1--2/3\1---3\1---2-1/4-4~---2-1/5-5~---2-1/6-6~--||--------------------------------------------------------||----------------0r----0r---------0r---------0-----------||--------------------------------------------------------|
| ||--------------------------------------------------------||--------------------------------------------------------||--------------------------------------------------------||-2r-----------------------------------------------------||-2r-----------------------------------------------------||-0r-----------------------------------------------------|
1:13 x2|--------------------------------------------------------||--------------------------------------------------------||--------------------------------------------------------||-(1)-4\3--4/5\3---5\3---4-3/6-6~---4-3/7-7~---4-3/8-8~--||----------------0r----0r---------0r---------0-----------||--------------------------------------------------------|
1:24- x4|--------------------------------------------||--------------------------------------------||-------7r----(7)----------------------------||--------------------------------------------||---4/5-5r----(5)----------------------------||--------------------------------------------|
| ||--------------------------------------------||--------------------------------------------||---8-8/(12)---12----12----12----12---14\----||--------------------------------------------||-6---6/(10)---10----10----10----10---12\----||--------------------------------------------|
1:37|----------------------------------------|----------------------------------------|-------3/4/5.--------3/6-6--7\6----h8ph-|-(2)------------------------------------|----1--1/2/2.--2p=1--1/4-4--5\4-(5)-----|--1p0----------0r(0)-------------5------
|
|----------------------------------------|----------------------------------------|-------3/4/5.--------3/6-6--7\6----h8ph-|-(2)------------------------------------|----1--1/2/2.--2p=1--1/4-4--5\4-(5)-----|--1p0----------0r(0)-------------5------
|
|-<18r-----------------------------------|----------------------------------------|-<16r-----------------------------------|----------------------------------------|----------------------------------------|----------------------------------------
------------------------------------|------------------------------------|-------3/4/5.--------3/6-6--7\6-----|-(2)--------------------------------|----1--1/2/2.--2p=1--1/4-4--5\4-(5)-|--1p0----------0r(0)-------------5--|
|
------------------------------------|------------------------------------|-------3/4/5.--------3/6-6--7\6-----|-(2)--------------------------------|----1--1/2/2.--2p=1--1/4-4--5\4-(5)-|--1p0----------0r(0)-------------5--|
|
-(14)-------------------------------|------------------------------------|-(13)-------------------------------|------------------------------------|------------------------------------|------------------------------------|
|----------------------------------------|----------------------------------------|-------3/4/5.--------3/6-6--7\6----h8ph-|-(2)------------------------------------|----1--1/2/2.--2p=1--1/4-4--5\4-(5)-----|--1p0----------0r(0)-------------5------
|
|----------------------------------------|----------------------------------------|-------3/4/5.--------3/6-6--7\6----h8ph-|-(2)------------------------------------|----1--1/2/2.--2p=1--1/4-4--5\4-(5)-----|--1p0----------0r(0)-------------5------
|
|----------------------------------------|-<20r-----------------------------------|----------------------------------------|-<16r-----------------------------------|----------------------------------------|----------------------------------------
------------------------------------|------------------------------------|-------3/4/5.--------3/6-6--7\6-----|-(2)--------------------------------|----1--1/2/2.--2p=1--1/4-4--5\4-(5)-|--1p0----------0r(0)-------------5--|
|
------------------------------------|------------------------------------|-------3/4/5.--------3/6-6--7\6-----|-(2)--------------------------------|----1--1/2/2.--2p=1--1/4-4--5\4-(5)-|--1p0----------0r(0)-------------5--|
|
-(14)-------------------------------|-(19)-----[let ring to feedback]----|-(13)-------------------------------|-(17)-------------------------------|------------------------------------|------------------------------------|
Fill|-----||-----||-----||-----||-2-1-||-0-0-| . .
1:53 x4|--------------------------------------------------------||--------------------------------------------------------||--------------------------------------------------------||-(1)-4\3--4/5\3---5\3---4-3/6-6~---4-3/7-7~---4-3/8-8~--||----------------0r----0r---------0r---------0-----------||--------------------------------------------------------|
.t=982:15 x14|---0r-----------0r---------||-------------------0r------||---------------------------||-9-------4-4-7-------------||-0-------0-0-0-------------||-8-------6-6-5-------------|
| ||---0r-----------1r---------||-------------------2r------||---------------------------||-9-------4-4-7-------------||-0-------0-0-0-------------||-8-------6-6-5-------------|
-------------------------------------------------------------------------------- Performance Notes: Easyish song for Gorguts. The second riff will prove hardest. Start with the diminished 7th (?) chord and pull off the first fret and slide up a string. Its a very smooth legato action. The rest is straightforward, or obvious, the hammered on pinch harmonic sounds unintentional but later in the song proves to be intentional, its just a matter of timing your hammer on precisely with your pinching.
Please rate this tab:
x1.0