Graham Coxon - You Always Let Me Down tab

Graham Coxon - You Always Let Me Down

Tabbed by Nerdo-sez-bo


Brilliant song, easy enough.
Learn and enjoy.


-------------------------------------

INTRO/VERSE/CHORUS RIFF

|---5-5-5--------------3-3-3-3-3----||---5-5-5--------------3-3-3-3-3----||---6-6-6--------------4-4-4-4-4----||---7-7-7--------------5-5-5-5-5----||---7-7-7--------------5-5-5-5-5----||---5-5-5--------------3-3-3-3-3----|Guitar 1
|-----------------------------------||--/10------------------------------||--/9-(sustain, hit strings---------||------again if needed)-------------||-----------------------------------||-----------------------------------|Guitar 2 (simulating keyboard part)
------------------------------------- PRE-CHORUS RIFFS
Number 1|--1-1-1-1-1-1-1-1--3-3-3-3-3-3-3-3-||--1-1-1-1-1-1-1-1--3-3-3-3-3-3-3-3-||--2-2-2-2-2-2-2-2--4-4-4-4-4-4-4-4-||--3-3-3-3-3-3-3-3--5-5-5-5-5-5-5-5-||--3-3-3-3-3-3-3-3--5-5-5-5-5-5-5-5-||--1-1-1-1-1-1-1-1--3-3-3-3-3-3-3-3-|Guitar 1
|-----------------------------------||-6-6-6-6-6-6-6-6--8-8-8-8-8-8-8-8--||-----------------------------------||------(apply exadurrated-----------||-------sustain)--------------------||-----------------------------------|Guitar 2
---
Number 2|--3-3-3-3-3-3-3-3--4-4-4-4-4-4-4-4-||--5-5-5-5-5-5-5-5--6-6-6-6-6-6-6-6-||--5-5-5-5-5-5-5-5--6-6-6-6-6-6-6-6-||--5-5-5-5-5-5-5-5--6-6-6-6-6-6-6-6-||--3-3-3-3-3-3-3-3--4-4-4-4-4-4-4-4-||-----------------------------------|Guitar 1
|-----------------------------------||-----------------------------------||--5-5-5-5-5-5-5-5--6-6-6-6-6-6-6-6-||------------(apply exadurrated-----||-------------sustain)--------------||-----------------------------------|Guitar 2
---Number 3|--5-5-5-5-----X-X-X-X-X------------||--5-5-5-5-----X-X-X-X-X------------||--6-6-6-6-----X-X-X-X-X------------||--7-7-7-7-----X-X-X-X-X------------||--7-7-7-7-----X-X-X-X-X------------||--5-5-5-5-----X-X-X-X-X------------|Guitar 1
|-----------------------------------||-----------------------------------||--5---5----------------------------||----7---7-----5---5----------------||----------------7---7--------------||-----------------------------------|Guitar 2
--- And just before the chorus...
|--4-4-4-4-4-4-4-4-4-4-4-4-4-4-4-4--||--4-4-4-4-4-4-4-4-4-4-4-4-4-4-4-4--||--5-5-5-5-5-5-5-5-5-5-5-5-5-5-5-5--||--6-6-6-6-6-6-6-6-6-6-6-6-6-6-6-6--||--6-6-6-6-6-6-6-6-6-6-6-6-6-6-6-6--||--4-4-4-4-4-4-4-4-4-4-4-4-4-4-4-4--|Guitar 1 & 2
------------------------------------- SOLO
|-----------------------------------||--7b-------9b---9b-----------------||-----5--------5----5---------------||-----------------------------------||-----------------------------------||-----------------------------------|
|-----------------------------------||-------7----7----------7----7------||----7b---7b---7-----7b---7b---7----||-----------------------------------||-----------------------------------||-----------------------------------|
|-----------------------------------||--9b---------------9b--------------||-----5----------------5------------||-----------------------------------||-----------------------------------||-----------------------------------|
|-----------------------------------||-----7----7------------------------||--7b---7b---7---7p5h7p5------------||------------------------7p5-5-7-7b-||-----------------------------------||-----------------------------------|
------------------------------------- So it goes: Main, riff 1, main, riff 1, main, riff 2 riff 3, riff 2, pre chorus, main, riff 1, main, riff 2, riff 3, pre chorus, main. Solo. Riff 2, riff 3, riff 2, pre chorus, main. End. Enjoy.
Tap to rate this tab
 
# A B C D E F G H I J K L M N O P Q R S T U V W X Y Z