Grave - Worth The Wait tab

                       GRAVE - WORTH THE WAIT
                        (1996 - HATING LIFE)
                       Version 1.0 - May 2001

This song is performed on a 6-string guitar tuned down to B 
(B, E, A, D, G, B) - the guitar sound is very harsh, with 
absolutely no mids. There are 2 guitars which sometimes 
needed to be transcribed separately.

This time I didn't give you the exact timing but it's easy 
to figure out when you listen to the record.

I didn't tab the solo. I think you can just improvise in 
G minor (pentatonic).

If you have any corrections or anything to say feel free to 
mail me : bpielczyk(at)gmx.de.


Riff 1

|----------------||----------------||----------------||----------------||2-5\4-2-4-2-4-5-||0-3\2-0-2-0-2-3-| * *
Riff 1b
|---------------||---------------||---------------||---------------||2-5\4----------||0-3\2----------| *
Riff 2
|----------------||----------------||--------3/4-----||--------1/2-----||2-5\4-2-----4/5-||0-3\2-0-----2/5-| * *
Riff 3 - two guitar tracks - parallel
|---------------------------------------------------||---------------------------------------------------||---------------------------------------------------||---------------------------------------------------||2------------------------2-------------------------||0------------------------0-------------------------| *
|---------------------------------------------------||---------------------------------------------------||---------------------------------------------------||--------------9-8----------------------4-3---------||7-10p9p7-9h10-----7-9h10-2-5\4-2-4/5-2-2-1-2-4/5-4-||-------------------------0-3\2-0-2/3-0-----0-2/3-2-| * *
Riff 4 - every second time this riff is played the first B chord becomes a C !
|--------------------------||--------------------------||--------------------------||--------------4-3---------||2-5\4-2-4/5-2-2-1-2-4/5-4-||0-3\2-0-2/3-0-----0-2/3-2-| ! * *
Riff 4b
|---------------------------------||---------------------------------||---------------------------------||---------------------------------||2222-2222-2222---1111-1111-4/5-4-||---------------3-----------2/3-2-| *
Riff 5
|----------------------------------------------------------||----------------------------------------------------------||----------------------------------------------------------||----------------------------------------5-----------------||--4---3-3---3---3---3---3---3---4---3---3-3-3-3-3-3-3-3-3-||2---2-----2---2---2---2---2---2---2---2---1-1-1-1-1-1-1-1-| * * * * * * * * * * * * * * *
Riff 6 - again two tracks - parallel
|----------------------------- -----------------------------||----------------------------- -----------------------------||----------------------------- -----------------------------||----------------------------- -----------------------------||2---------------------------- 3----------------------------||0---------------------------- 1----------------------------|
|----------------------------- -----------------------------||----------------------------- -----------------------------||----------------------------- -----------------------------||----------------9-8---------- ----------------9-8----------||7-10p9p7-9h10-7-----7-9h10p9- 7-10p9p7-9h10-7-----7-9h10p9-||----------------------------- -----------------------------| * * * *
...continued
|----------------------------- ---------------------------||----------------------------- ---------------------------||----------------------------- ---------------------------||----------------------------- ---------------------------||2---------------------------- 222222222222--11111111-4-5-||0---------------------------- ------------3----------2-3-|
*|----------------------------- ---------------------------||----------------------------- ---------------------------||----------------------------- ---------------------------||----------------9-8---------- 999999999999--8-888888-----||7-10p9p7-9h10-7-----7-9h10p9- ------------10---------8-9-||----------------------------- ---------------------------| * * **
Riff 7
|------------------------------------------------------||------------------------------------------------------||------------------------------------------------------||------------5-------------5-------------5-------------||2-2-5-5\3-2-3-2-2-5-5\3-2-3-2-2-5-5\3-2-3-2-2-2-3-3-3-||0-0-3-3\1-0---0-0-3-3\1-0---0-0-3-3\1-0---0-0-0-1-1-1-| * * * * * * * * * *
Riff 8
|--------------------------||--------------------------||--------------------------||--------------------------||2--------------------xxxxx||0--------------------xxxxx| pick scrape
Riff 8b
|------------------------ ------------------------||------------------------ ------------------------||------------------------ ------------------------||------------------------ ------------------------||2----------------------- 5-----------------------||0----------------------- 3-----------------------|
|------------------------ ------------------------||------------------------ ------------------------||------------------------ ------------------------||------------------------ ------------------------||2-5\4-2-4/5-2-5\4-2-4/5- 2-5\4-2-4/5-2-5\4-2-4/5-||0-3\2-0-2/3-0-3\2-0-2/3- 0-3\2-0-2/3-0-3\2-0-2/3-| * * * * * * * *...continued
|------------------------ ------------------------||------------------------ ------------------------||------------------------ ------------------------||------------------------ ------------------------||2----------------------- 5-----------------------||0----------------------- 3-----------------------|
*|------------------------ ------------------------||------------------------ ------------------------||------------------------ ------------------------||------------------------ ------------------------||2-5\4-2-4/5-2-5\4-2-4/5- --------------------4-5-||0-3\2-0-2/3-0-3\2-0-2/3- --------------------2-3-| * * * *
Riff 8c
|------------------------ ------------------------||------------------------ ------------------------||------------------------ ------------------------||------------------------ ------------------------||2----------------------- 5-----------------------||0----------------------- 3-----------------------|
|------------------------ ------------------------||------------------------ ------------------------||------------------------ ------------------------||------------------------ ------------------------||2-5\4-2-4/5-2-5\4-2-4/5- 2-5\4-2-4/5-2-5\4-2-4/5-||0-3\2-0-2/3-0-3\2-0-2/3- 0-3\2-0-2/3-0-3\2-0-2/3-| * * * * * * * *
... continued
|------------------------ ------------------------||------------------------ ------------------------||------------------------ ------------------------||------------------------ 3-----------------------||2----------------------- 1-----------------------||0----------------------- ------------------------|
|------------------------ ------------------------||------------------------ ------------------------||------------------------ ------------------------||------------------------ ------------------------||2-5\4-2-4/5-2-5\4-2-4/5- 2-5\4-2-4/5-2-5\4-2-4/5-||0-3\2-0-2/3-0-3\2-0-2/3- 0-3\2-0-2/3-0-3\2-0-2/3-| * * * * * * * *
Riff 9 - play throughout the solo
|------------------------ ------------------------||------------------------ ------------------------||------------------------ ------------------------||------------------------ ------------------------||2-5\4-2-4/5-2-5\4-2-4/5- 2-5\4-2-4/5-2-5\4-2-4/5-||0-3\2-0-2/3-0-3\2-0-2/3- 0-3\2-0-2/3-0-3\2-0-2/3-| * * * * * * * *
Riff 10
|---------------- ----------------||---------------- ----------------||--------4------- --------4-------||2-------4------- 3-------4-------||2-------2------- 3-------2-------||0--------------- 1---------------|
Song Structure : (Intro) 7 x Riff 1 1 x Riff 1b 8 x Riff 2 1 x Riff 3 3 x Riff 4 1 x Riff 4b 3 x Riff 4 1 x Riff 4b 2 x Riff 5 1 x Riff 6 2 x Riff 7 5 x Riff 4 1 x Riff 4b 3 x Riff 4 1 x Riff 4b 2 x Riff 5 1 x Riff 8 1 x Riff 8b 2 x Riff 8c Solo : 4 x Riff 9 2 x Riff 7 (with a slight rhythmic change in the end) 2 x Riff 5 (with some pinch harmonics) 2 x Riff 6 1 x Riff 10
Tap to rate this tab
 
# A B C D E F G H I J K L M N O P Q R S T U V W X Y Z