Great White - House Of Broken Love tab

                              HOUSE OF BROKEN LOVE
                                by Great White
                       (From the Album ...TWICE SHY)

Words and Music by Great White
Transcribed by RickPawlyk@hotmail.com

This is right up to where he starts to sing. I'm bad at writing the tab this way, 
If you want this in Adobe format you can email me and I will send it to you. It will 
look like you bought it at a store.

tempo=140 4/4 Gtr I|--------------------|--------------------|--------------||--------------------|--------------------|--------------||-------5------------|-------5------------|-------5------||-----7-5--5----(5)--|-----7-5--5----(5)--|-----7-5--5---||---7------5----(5)--|---7------5----(5)--|---7------5---||-5------------------|-5------------------|-5------------|
Gtr I|------------------|---------------------------||------------------|---------------------------||------------------|-----------------7b7.5-5---||------7----(7)----|-------------------------7-||---/7-------------|---------------------------||------------------|---------------------------|
|
|------------------|---------------------------||------------------|---------------------------||--------5---------|------------5--------------||------7-5---5-----|-(5)------7-5--5-----------||----7-------5-----|-(5)----7------5-----------||-5----------------|------5--------------------|
|-------------------------|---------||-------------------------|---------||-------5-7-5---------5---|---------||--5--7-------7-5---5---7-|--5--5h7-||-----------------7-------|---------||-------------------------|---------|
|
|-------------------------|---------||-------------------------|---------||-------------5-----------|---------||-(5)-------7-5---5-------|-(5)-----||-(5)-----7-------5-------|-(5)-----||-------5-----------------|---------|
|------------------|------------------------8-||------------------|-----------------5-8-10---||-----5------------|--7--5-------5-7----------||-5-----7----(7)---|-------7-5-7--------------||---7--------------|--------------------------||------------------|--------------------------|
|
|------------------|--------------------------||------------------|--------------------------||-------5----------|-------------5------------||-----7-5--5-------|-(5)-------7-5---5--------||---7------5-------|-(5)-----7-------5--------||-5----------------|-------5------------------|
|-12---------------17------|-15b17--15b17-||-----10-------17-----17---|--------------||--------------------------|--------------||--------------------------|--------------||--------------------------|--------------||--------------------------|--------------|
|
|--------------------------|--------------||--------------------------|--------------||---------------5----------|--------------||-(5)--------7--5---5------|-(5)----------||-(5)------7--------5------|-(5)----------||--------5-----------------|--------------|
|-15b17-----15b17------|--15b16------------------||-------------------13-|---------12--------------||----------------------|-------------------12-14-||----------------------|---------------/14-------||----------------------|-------------------------||----------------------|-------------------------|
|----------------------------------|---||-13-------------------------------|---||----14-14------13-15-15b17--15b17-|---||------------14--------------------|---||----------------------------------|---||----------------------------------|---|
|---------------|---------------------|---------------||---------------|---------------------|----------10-8-||-----5----4b6r=|=(4)------5----9--7--|-----5---------||---5---7-------|--------5---7-----7--|---5---7-------||-7-------------|------7--------------|-7-------------||---------------|---------------------|---------------|
-----------------|-8b10r=(8)-10----|-----------------|-----------------|-----------------|-----------------|
|----------------------|---------|-------------------------|-10-8-----------------|---------|-------------------------|------9-7--7-5--5---5-|---------|-----5-------------------|------------------7---|-7--7-7--|-5-----7--5-------------|----------------------|---------|---7--------7-6-5-3-5s7--|----------------------|---------|-------------------------
-------|-------|-------|5-7----|-------|-------|
|---------------------5-7-------5-7-8--10--12--15--12-|-17-|-----------5---5-7-8-----5-7-8-----------------------|----|-----4-5-7---7---------------------------------------|----|-5-7-------------------------------------------------|----|-----------------------------------------------------|----|-----------------------------------------------------|----
12-17-15-19----|---------------|---------------|---------------|---------------|---------------|
|-17-------17-------15-------15-------13-------13-------12-|----15-------15-------13-------13-------13-------13-------|-------14-------14-------14-------14-------14-------14----|----------------------------------------------------------|----------------------------------------------------------|----------------------------------------------------------
---------|----|15-------|----|---12-14-|----|---------|----|---------|----|---------|----|
Tap to rate this tab
 
# A B C D E F G H I J K L M N O P Q R S T U V W X Y Z