Greeley Estates - Youll Never Leave Vegas Alive tab

Kickass song =]
I'm hoping this is 98% accurate or more, it sounds almost exactly perfect.
Enjoy =]
RATE AND COMMENT!!

INTRO---Guitar 1:|-----------------------------||-----------------------------||-----------------------------||------7------------------8-5-||----5---8-5------------5-----||-00---------00-00-00-0-------| .. .. .. .. .
|-----------------------------||-----------------------------||-----------------------------||------7------------------8-5-||----5---8-5------------5-----||-00---------00-00-00-0-------| .. .. .. .. .
|--------------------------------||--------------------------------||--------------------------------||------7-------------------------||----5---8-5---------------------||-00---------00-00-00-00-0000-00-| .. .. .. .. .. .... ..
|---------------------------------||---------------------------------||---------------------------------||---------------------------------||-3-3-3-3-3-3-3-3-2-2-2-2-1-1-1-1-||-3-3-3-3-3-3-3-3-2-2-2-2-1-1-1-1-| . . . . . . . .
Guitar 2:|-------------------------------||-------------------------------||-------------------------------||------10-------------------8-5-||----8----12-8------------5-----||-00-----------00-00-00-0-------| .. .. .. .. .
|-------------------------------||-------------------------------||-------------------------------||------10-------------------8-5-||----8----12-8------------5-----||-00-----------00-00-00-0-------| .. .. .. .. .
|-------------------------------||-------------------------------||-------------------------------||------10-----------------------||----8----12-8------------------||-00-----------00-00-00-0000-00-| .. .. .. .. .... ..
|---------------------------------||---------------------------------||---------------------------------||---------------------------------||-3-3-3-3-3-3-3-3-2-2-2-2-1-1-1-1-||-3-3-3-3-3-3-3-3-2-2-2-2-1-1-1-1-| . . . . . . . .
VERSE 1--- (repeat INTRO)
CHORUS---"The color of your eyes..."Guitar 1:|-----------------------------------------------------------------||-----------------------------------------------------------------||-----------------------------------------------------------------||-----------------------------------------------------------------||---------------------------------4-4-4-4-4-4-4-4-3-3-3-----------||-0-0-0-0-0-0-0-0-1-1-1-1-1-1-1-1-----------------------3-3-3-3-3-|
|-----------------------------------------------------------------||-----------------------------------------------------------------||-----------------------------------------------------------------||-----------------------------------------------------------------||---------------------------------4-4-4-4-4-4-4-4-3-3-3-----------||-0-0-0-0-0-0-0-0-1-1-1-1-1-1-1-1-----------------------3-3-3-3-3-|
Guitar 2:|-----------------------------------------------------------------||-----------------------------------------------------------------||-7-7-7-7-7-7-7-7-8-8-8-8-8-8-8-8-8-8-8-8-8-8-8-8-8-8-8-8-8-8-8-8-||-----------------------------------------------------------------||-----------------------------------------------------------------||-----------------------------------------------------------------|
|-----------------------------------------------------------------||-----------------------------------------------------------------||-7-7-7-7-7-7-7-7-8-8-8-8-8-8-8-8-8-8-8-8-8-8-8-8-8-8-8-8-8-8-8-8-||-----------------------------------------------------------------||-----------------------------------------------------------------||-----------------------------------------------------------------|
VERSE 2--- (repeat INTRO twice)
MINI BREAKDOWN---"I'll only warn you once..."Guitar 1:[Guitar 2 plays some lead thing, I'll pick that up later... SORRY!!!]|------------------------------------------------||------------------------------------------------||------------------------------------------------||------------------------------------------------||-00~---00-00-00~---0000-00~---00-00-00~---0000~-||-00~---00-00-00~---0000-00~---00-00-00~---0000~-|
|------------------------------------------------||------------------------------------------------||------------------------------------------------||------------------------------------------------||-00~---00-00-00~---0000-00~---00-00-00~---0000~-||-00~---00-00-00~---0000-00~---00-00-00~---0000~-|
CHORUS (repeat x4)---
KICKASS PART AT 1:23---Both guitars:|----------------------------------------||----------------------------------------||----------------------------------------||-0~~~--0~~~--0~~~--x-x-xx-x-xx-x-xx-x-x-||-0~~~--0~~~--0~~~--x-x-xx-x-xx-x-xx-x-x-||-0~~~--0~~~--0~~~--x-x-xx-x-xx-x-xx-x-x-|
BREAKDOWN Part 1---Both guitars:|---------------------------------------------------||---------------------------------------------------||---------------------------------------------------||---------------------------------------------------||-0-000-----000000---000-----000000-000----0-000000-||-0-000-----000000---000-----000000-000----0-000000-| . ... ...... ... ...... ... . ......
|-------------------------------------------||-------------------------------------------||-------------------------------------------||-------------------------------------------||-00-00-0000-00-00-0000-00-00-0000-00-00-00-||-00-00-0000-00-00-0000-00-00-0000-00-00-00-| .. .. .... .. .. .... .. .. .... .. .. ..^^ hit these hard
|-------------------------------------------------------||-------------------------------------------------------||-------------------------------------------------------||-------------------------------------------------------||-0~-000~-----000000~---000~-----000000-000----0-000000-||-0~-000~-----000000~---000~-----000000-000----0-000000-| . ... ...... ... ...... ... . ......
[slow down]|-------------------------------------------||-------------------------------------------||-------------------------------------------||-------------------------------------------||-00-00-0000-00-00-0000-00-00-0000-00-00-00-||-00-00-0000-00-00-0000-00-00-0000-00-00-00-| .. .. .... .. .. .... .. .. .... .. .. ..^^ hit these hard
BREAKDOWN PART 2---Guitar 1:|------------------------------||------------------------------||------------------------------||------------------------------||-0-------000------4-3-----2-0-||-0--0-1--000--0-1-----2-3-----| . ...
|------------------------------------||------------------------------------||------------------------------------||------------------------------------||-0000000----4-3----000--5-----2-----||-0000000--0-----2--000----1-2---2-4-| ....... ...
|------------------------------||------------------------------||------------------------------||------------------------------||-0-------000------4-3-----2-0-||-0--0-1--000--0-1-----2-3-----| . ...
|------------------------------------||------------------------------------||------------------------------------||------------------------------------||-0000000----4-3----000--5-----2-----||-0000000--0-----2--000----1-2---2-4-| ....... ...
|------------------------------||------------------------------||------------------------------||------------------------------||-0-------000------4-3-----2-0-||-0--0-1--000--0-1-----2-3-----| . ...
|------------------------------------||------------------------------------||------------------------------------||------------------------------------||-0000000----4-3----000--5-----2-----||-0000000--0-----2--000----1-2---2-4-| ....... ...
|------------------------------||------------------------------||------------------------------||------------------------------||-0-------000------4-3-----2-0-||-0--0-1--000--0-1-----2-3-----| . ...
|------------------------------------||------------------------------------||------------------------------------||------------------------------------||-0000000----4-3----000--5-----2-----||-0000000--0-----2--000----1-2---2-4-| ....... ...
Guitar 2:(pay attention this one is different than Guitar 1)|------------------------------||------------------------------||------------------------------||------------------------------||-0-------000------4-3-----2-0-||-0--0-1--000--0-1-----2-3-----| . ...
|------------------------------------||------------------------------------||------------------------------------||------------------------------------||-0000000----4-3----000--5-----2-----||-0000000--0-----2--000----1-2---2-4-| ....... ...
|------------------------------||------------------------------||------------------------------||------------------------------||-0-------000------4-3-----2-0-||-0--0-1--000--0-1-----2-3-----| . ...
|------------------------------------||------------------------------------||------------------------------------||------------------------------------||-0000000----4-3----000--5-----2-----||-0000000--0-----2--000----1-2---2-4-| ....... ...
|------------------------------||------------------------------||------------------------------||------------------------------||-0-------000------8-7-----6-4-||-0--4-5--000--4-5-----6-5-----| . ...
|------------------------------------||------------------------------------||------------------------------------||------------------------------------||-0000000----8-7----000--9-----6-----||-0000000--4-----6--000----5-6---6-8-| ....... ...
|------------------------------||------------------------------||------------------------------||------------------------------||-0-------000------4-3-----2-0-||-0--0-1--000--0-1-----2-3-----| . ...
|------------------------------------||------------------------------------||------------------------------------||------------------------------------||-0000000----8-7----000--9-----6-----||-0000000--4-----6--000----5-6---6-8-| ....... ...
OUTRO---just repeat these chords in a variety of fashionsI'LL MAKE THIS MORE EXPLICIT AND DETAILED LATER.Both guitars:|-----------------------------------------------------------------||-----------------------------------------------------------------||-----------------------------------------------------------------||-0-0-0-0-0-0-0-0-0-0-0-0-0-0-0-0-3-3-3-3-3-3-3-3-3-3-3-3-3-3-3-3-||-0-0-0-0-0-0-0-0-0-0-0-0-0-0-0-0-3-3-3-3-3-3-3-3-3-3-3-3-3-3-3-3-||-0-0-0-0-0-0-0-0-0-0-0-0-0-0-0-0-3-3-3-3-3-3-3-3-3-3-3-3-3-3-3-3-|
|-----------------------------------------------------------------||-----------------------------------------------------------------||-----------------------------------------------------------------||-2-2-2-2-2-2-2-2-2-2-2-2-2-2-2-2-8-8-8-8-8-8-8-8-7-7-7-7-7-7-7-7-||-2-2-2-2-2-2-2-2-2-2-2-2-2-2-2-2-8-8-8-8-8-8-8-8-7-7-7-7-7-7-7-7-||-2-2-2-2-2-2-2-2-2-2-2-2-2-2-2-2-8-8-8-8-8-8-8-8-7-7-7-7-7-7-7-7-|
ENDING---Both guitars:|---------||---------||-0~~~~---||-0~~~~---||-0~~~~---|
Tap to rate this tab
 
# A B C D E F G H I J K L M N O P Q R S T U V W X Y Z