Grinspoon - Gone Tomorrow tab

Artist: Grinspoon
Song: Gone Tomorrow
Album: New Detention


Played in Drop D tuning, down 1/2 step. That means you tune it
down to Drop D first then tune every string down an extra 1/2
step. If don't wont to tune it down 1/2 step then you don't
have to but you do have to Drop D. I'd play it down 1/2 a step
anyway cause it sounds sweet with the deeper notes. I hope it's
right. Enjoi!


Drop D tuning, down 1/2 step:
(low to high) Db-Ab-Db-Gb-Bb-Eb

 Intro: (dist.)

D5eb|---------------------------------------------------|Bb|---------------------------------------------------|Gb|---------------------------------------------------|Db|--------------------------------7--7--7--7--7--7---|Ab|--------------------------------5--5--5--5--5--5---|Db|--0--2-----0--2-----0--2-----0---------------------|
C5 ----------------------------------------------------| ----------------------------------------------------| ----------------------------------------------------| ---------------------------------5--5--5--5--5--5---| ---------------------------------3--3--3--3--3--3---| ---0--2-----0--2-----0--2-----0---------------------|
Riff A-
D5 |---------------------------------------------------| |---------------------------------------------------| |--------------------------------7--7--7--7--7--7---| |--------------------------------7--7--7--7--7--7---| |--------------------------------5--5--5--5--5--5---| |--0--2-----0--2-----0--2-----0---------------------|
C5 ----------------------------------------------------| ----------------------------------------------------| ---------------------------------5--5--5--5--5--5---| ---------------------------------5--5--5--5--5--5---| ---------------------------------3--3--3--3--3--3---| ---0--2-----0--2-----0--2-----0---------------------|
[Riff A, played twice] 1st Verse: (clean) w/wah-wah pedal
D |----------------------------------------------------| |---7-----------7-----------7-----------7------------| |---7-----------7-----------7-----------7------------| |---7-----------7-----------7-----------7------------| |---5-----x--x--5-----x--x--5-----x--x--5-----x--x---| |----------------------------------------------------| If you can't expect to take some blame
You should ***ing know you ain't that perfect [play Riff A again] Sorry that it had to end this way Now I guess you're looking for an answear
D5 |---------------------------------------------------| |---------------------------------------------------| |--------------------------------7--7--7--7--7--7---| |--------------------------------7--7--7--7--7--7---| |--------------------------------5--5--5--5--5--5---| |--0--2-----0--2-----0--2-----0---------------------|
Db5 ----------------------------------------------------| ----------------------------------------------------| ---------------------------------6--6--6--6--6--6---| ---------------------------------6--6--6--6--6--6---| ---------------------------------4--4--4--4--4--4---| ---0--2-----0--2-----0--2-----0---------------------|
C5 ----------------------------------------------------| ----------------------------------------------------| ---------------------------------5--5--5--5--5--5---| ---------------------------------5--5--5--5--5--5---| ---------------------------------3--3--3--3--3--3---| ---0--2-----0--2-----0--2-----0---------------------|
Db5 ----------------------------------------------------| ----------------------------------------------------| ---------------------------------6--6--6--6--6--6---| ---------------------------------6--6--6--6--6--6---| ---------------------------------4--4--4--4--4--4---| ---0--2-----0--2-----0--2-----0---------------------|
Chorus: (dist.)
A G5 |---------------------------------------------------| |--2--------2--2------------------------------------| |--2--------2--2------------------------------------| |--2--------0--0-----5----------------5-------------| |--0--------0--0-----5----------------5-------------| |--------------------5----------------5-------------| If when I'm
Gb5 E5 ---------------------------------------------------| ---------------------------------------------------| ---------------------------------------------------| ---4--------4--4-----0----------------0------------| ---4--------4--4-----0----------------0------------| ---4--------4--4-----0----------------0------------| gone to - mor - row
This mightn't sop in sorrow Those dreams have past you long ago
E5 |---------------------------------------------------| |---------------------------------------------------| |---------------------------------------------------| |--2-----2--2--2-----2--2--2-----2--2--2-----2--2---| |--2-----2--2--2-----2--2--2-----2--2--2-----2--2---| |--2-----2--2--2-----2--2--2-----2--2--2-----2--2---| Those dreams have
G5 -----------------------------| -----------------------------| -----------------------------| ---5-----------5-----5-------| ---5-----------5-----5-------| ---5-----------5-----5-------| past you long ago
[play Intro again] 2nd Vesre: Same as 1st Verse Could've just moved into my place But you wanted me to sell a sucker [play Riff A] This is not the way it's meant to rage You could've found another reject [play Riff A, then the Chorus again] Bridge: (dist.)
|--------------------------------------------------| |--------------------------------------------------| |--------------------------------------6-b-(7)-----| |--------------------------------------------------| |--------------------------------------------------| |--0--2-----0--2-----0--2-----0--2--0--------------|
C5 ---------------------------------------------------| ---------------------------------------------------| ---------------------------------------5--5--5-----| ---------------------------------------5--5--5-----| ---------------------------------------3--3--3-----| ---0--2-----0--2-----0--2-----0--2--0--------------|
[played twice] Solo: (dist.)
|--------------------------------------------------| |--4~-------4~-------4h(5)~~~~~~~~~~~--------------| |--------------------------------------------------| |--------------------------------------------------| |--------------------------------------------------| |--------------------------------------------------|
----------------------------------------------------| ---6--------6-------6p(5)~~~~~~~~~~~~---------------| ----------------------------------------------------| ----------------------------------------------------| ----------------------------------------------------| ----------------------------------------------------|
---------------------------------------------------| ---4~-------4~-------4h(5)~~~~~~~~~~~--------------| ---------------------------------------------------| ---------------------------------------------------| ---------------------------------------------------| ---------------------------------------------------|
---------------------------------------------4~~~~-| ---6--------6-------6p(5)~~~~~~~~~~~~-5~~~~~~5~~~~-| ---------------------------------------------------| ---------------------------------------------------| ---------------------------------------------------| ---------------------------------------------------|
[play Chorus again] Outro: (dist.)
D5 |--------------------------------------------------| |--------------------------------------------------| |--------------------------------------------------| |--------0-----------0-----------0-----------0-----| |--0--0--0-----0--0--0-----0--0--0-----0--0--0-----| |--0--0--0-----0--0--0-----0--0--0-----0--0--0-----|PM: ^ ^ ^ ^ ^ ^ ^ ^ ^ ^ ^ ^
F5 D5 F5 D5 F5 --------------------------------------------------| --------------------------------------------------| --------------------------------------------------| ---------0-----------0-----------0--3-----0--3----| ---0--0--0-----0--0--0-----0--0--0--3-----0--3----| ---0--0--0-----0--0--0-----0--0--0--3-----0--3----| ^ ^ ^ ^ ^ ^ ^ ^ ^
[played twice before Gtr. 2 enters] Gtr. 2 (clean) w/ wah-wah pedal
|--8--8--8-----8--8--8-----8--8--8-----8--8--8-----| |--------------------------------------------------| |--------------------------------------------------| |--------------------------------------------------| |--------------------------------------------------| |--------------------------------------------------|
---8--8--8-----8--8--8-----5--5--5--5------6--5---| --------------------------------------------------| --------------------------------------------------| --------------------------------------------------| --------------------------------------------------| --------------------------------------------------|
[played twice over Gtr. 1] [Gtr. 1 ends on D5]
Tap to rate this tab
 
# A B C D E F G H I J K L M N O P Q R S T U V W X Y Z