Grinspoon - Repeat tab

#----------------------------------PLEASE NOTE---------------------------------#
#This file is the author's own work and represents their interpretation of the #
#song. You may only use this file for private study, scholarship, or research. #
#------------------------------------------------------------------------------#

Here's how I play 'Repeat' by Grinspoon. Any changes
or variations, please e-mail me.
Fanx, Anthony Russell - Ezekiel@onaustralia.com.au

KEY -
S - Semibreve
M - Minim
C - Crotchet
Q - Quaver
SQ - Semi Quaver
D - Dotted note

REPEAT: Track 10 from their album 'Guide to Better
Living'

Drop 'D' Tuning

C = 114 (approx.)

The main riff 'A'

Gtrs. 1&2 w\Distortion

N|-Q-Q-C--Q-Q-Q-C--Q-Q-Q-C--C--Q-Q-C--Q-Q-Q-M----C--C--|
 |
1|-----------------------------------------------------|2|-----------------------------------------------------|3|-----------------------------------------------------|4|-5-3-0--2-3-2-0--0-5-0-6--5--5-3-0--2-3-2-0----6--6--|5|-5-3-0--2-3-2-0--0-5-0-6--5--5-3-0--2-3-2-0----6--6--|6|-5-3-0--2-3-2-0--0-5-0-6--5--5-3-0--2-3-2-0----6--6--|
Riff 'B' Gtr. 1 w\Clean Wah N|-C--Q-SQ-SQ-DQ-SQ-SQ-SQ-SQ-SQ-C--Q-SQ-SQ-DQ-SQ-SQ-SQ-SQ-SQ-| |
1|-----------------------------------------------------------|2|-----------------------------------------------------------|3|-----------------------------------------------------------|4|-0--2-X--X--3--3--X--X--X--X--0--2-X--X--3--2--X--X--X--X--|5|-0--2-X--X--3--3--X--X--X--X--0--2-X--X--3--2--X--X--X--X--|6|-0--2-X--X--3--3--X--X--X--X--0--2-X--X--3--2--X--X--X--X--|
N|-C--Q-SQ-SQ-DQ-SQ-SQ-SQ-SQ-SQ-C--Q-SQ-SQ-DQ-SQ-SQ-SQ-SQ-SQ-| |
1|-----------------------------------------------------------|2|-----------------------------------------------------------|3|-----------------------------------------------------------|4|-0--2-X--X--3--3--X--X--X--X--0--2-X--X--3--2--X--X--X--X--|5|-0--2-X--X--3--3--X--X--X--X--0--2-X--X--3--2--X--X--X--X--|6|-0--2-X--X--3--3--X--X--X--X--0--2-X--X--3--2--X--X--X--X--|
* NOTE: Play without mutes when voices enters Riff 'C' Gtr. 1 w\Clean Wah N|-C--DQ-SQ-Q-Q-DQ-SQ-C--DQ-SQ-Q-Q-DQ-SQ-| |
1|---------------------------------------|2|---------------------------------------|3|---------------------------------------|4|-5--5--5--2-2-2--2--0--0--0--0-0-0--0--|5|-5--5--5--2-2-2--2--0--0--0--0-0-0--0--|6|-5--5--5--2-2-2--2--0--0--0--0-0-0--0--|
| |Gtr. 2 w\Clean Tone N|-----------------------C-----C---C-----| |
1|---------------------------------------|2|-----------------------3---------------|3|-----------------------------2---------|4|---------------------------------0-----|5|---------------------------------------|6|---------------------------------------|
Gtr. 1 w\Distortion N|-C--DQ-SQ-Q-Q-DQ-SQ-C--DQ-SQ-Q-Q-DQ-SQ-| |
1|---------------------------------------|2|---------------------------------------|3|---------------------------------------|4|-5--5--5--2-2-2--2--0--0--0--0-0-0--0--|5|-5--5--5--2-2-2--2--0--0--0--0-0-0--0--|6|-5--5--5--2-2-2--2--0--0--0--0-0-0--0--|
| |Gtr. 2 w\Distortion N|-----------------------------M---------|
| *1|-----------------------------0---------|2|-----------------------------2---------|3|-----------------------------3---------|4|-----------------------------0---------|5|-----------------------------0---------|6|-----------------------------0---------|
* Play an appregiated upstroke Riff 'D' Gtrs. 1&2 w\Distortion N|-C--DQ-SQ-C-DQ--SQ-Q--Q--Q--Q--C--DQ-SQ-C--DQ-SQ-C--DQ-SQ-| |
1|----------------------------------------------------------|2|----------------------------------------------------------|3|----------------------------------------------------------|4|-8--8--8--5--5--5--10-10-10-10-0--0--0--8--8--8--5--5--5--|5|-8--8--8--5--5--5--10-10-10-10-0--0--0--8--8--8--5--5--5--|6|-8--8--8--5--5--5--10-10-10-10-0--0--0--8--8--8--5--5--5--|
Riff 'E' Gtrs. 1&2 w\Distortion N|-Q-Q-Q-Q-Q-Q-Q-Q-Q-Q-Q-Q-Q-Q-Q-Q-Q-Q-Q-Q-Q-Q-Q-Q-Q-Q-Q-Q-Q-Q-Q-Q-| |
1|-----------------------------------------------------------------|2|-----------------------------------------------------------------|3|-----------------------------------------------------------------|4|-6-6-6-6-6-6-6---6-6-6-6-6-6-6---0-0-0-0-0-0-0---0-0-0-0-0-0-0---|5|-6-6-6-6-6-6-6---6-6-6-6-6-6-6---0-0-0-0-0-0-0---0-0-0-0-0-0-0---|6|-6-6-6-6-6-6-6-R-6-6-6-6-6-6-6-R-0-0-0-0-0-0-0-R-0-0-0-0-0-0-0-R-|
N|-Q-Q-Q-Q-Q-Q-Q-Q-Q-Q-Q-Q-Q-Q-Q-Q-Q-Q-Q-Q-Q-Q-Q-Q-Q-Q-Q-Q-Q-Q-Q-Q-| |
1|-----------------------------------------------------------------|2|-----------------------------------------------------------------|3|-----------------------------------------------------------------|4|-6-6-6-6-6-6-6---6-6-6-6-6-6-6---0-2-0-3-3-2-0---0-2-0-3-3-2-0---|5|-6-6-6-6-6-6-6---6-6-6-6-6-6-6---0-2-0-3-3-2-0---0-2-0-3-3-2-0---|6|-6-6-6-6-6-6-6-R-6-6-6-6-6-6-6-R-0-2-0-3-3-2-0-R-0-2-0-3-3-2-0-R-|
N|-Q-Q-Q-Q-Q-Q-Q-Q-Q-Q-Q-Q-Q-Q-Q-Q-Q-Q-Q-Q-Q-Q-Q-Q-Q-Q-Q-Q-Q-Q-Q-Q-| |
1|-----------------------------------------------------------------|2|-----------------------------------------------------------------|3|-----------------------------------------------------------------|4|-6-6-6-6-6-6-6---6-6-6-6-6-6-6---0-2-0-3-3-2-0---0-2-0-3-3-2-0---|5|-6-6-6-6-6-6-6---6-6-6-6-6-6-6---0-2-0-3-3-2-0---0-2-0-3-3-2-0---|6|-6-6-6-6-6-6-6-R-6-6-6-6-6-6-6-R-0-2-0-3-3-2-0-R-0-2-0-3-3-2-0-R-|
N|-Q-Q-Q-Q-Q-Q-Q-Q-Q-Q-Q-Q-Q-Q-Q-Q-| |
1|---------------------------------|2|---------------------------------|3|---------------------------------|4|-6-6-6-6-6-6-6---6-6-6-6-6-6-6---|5|-6-6-6-6-6-6-6---6-6-6-6-6-6-6---|6|-6-6-6-6-6-6-6-R-6-6-6-6-6-6-6-R-|
Play Order: Riff A x 2 Riff B x 2 Riff C Riff D Riff A x 2 Riff B x 2 (mute every now and then) Riff C Riff D Riff A x 2 (skip last 2 chords second time around) Riff E Riff B x 2 Riff C Riff D (play it sort of doubled. Listen to CD and figure it out) Riff A (play first bar only)
Tap to rate this tab
 
# A B C D E F G H I J K L M N O P Q R S T U V W X Y Z