Guided By Voices - Skills Like This tab

I love this song. Heard it one day on Pandora.com and it immediately caught
my attention. This is my first tab. I based it off of the chords as posted
on gbv.com. Hope it helps someone learning guitar. It is a very fun song to
play.

Standard Tuning.


INTRO:|----------------------------||----------------------------||----------------------------||----------------------------||xx-7-xx-7-x-7-x-7-333-------||xx-5-xx-5-x-5-x-5-----3-2-0-|x4
|-------------------||-------------------||-------------------||-------------------||777777--333--------||555555------3-2-0--| X3
Reinvented nightly. Wake up with skills like this. And do you want me in your head?
|---------------------------||---------------------------||---------------------------||--------555-777------------||777-999-333-555------------||555-777--------------------|
But what's behind your scattered eyesigns?
|-------------------------------------------||-------------------------------------------||-------------------------------------------||-------------------------------------------||9999-3333--77777-333--------77777-333------||7777-1111--55555-----3-2-0--55555-----3-2-0|
I want to reinvent you now.
|-------------------||-------------------||-------------------||-------------------||777777--333--------||555555------3-2-0--| X3
Fifty hats and bargain suits. We will wear them if we must. But who will be a human boot?
|---------------------------||---------------------------||---------------------------||--------555-777------------||777-999-333-555------------||555-777--------------------|
Kick the wave of current hotlines?
|---------------------------||---------------------------||---------------------------||---------------------------||9999-3333--77777-333-------||7777-1111--55555-----3-2-0-|X2
I want to reinvent you now. I want to reinvent you now.
|-------------||-------------||-------------||-------------||7-77-7-77-7--||5-55-5-55-5--|
|-------------||-------------||-------------||------7------||7--5--5--7---||5--3-----5---| X3
Reinvent you nightly. Reinvite you rightly. I'll reunite you.
|----------------------------||----------------------------||----------------------------||----------------------------||xx-7-xx-7-x-7-x-7-333-------||xx-5-xx-5-x-5-x-5-----3-2-0-|x4
|-------------------||-------------------||-------------------||-------------------||777777--333--------||555555------3-2-0--|X3
Reinvented nightly. Wake up with skills like this. And do you want me in your head?
|---------------------------||---------------------------||---------------------------||--------555-777------------||777-999-333-555------------||555-777--------------------|
But what's behind your scattered eyesigns?
|---------------------------||---------------------------||---------------------------||---------------------------||9999-3333--77777-333-------||7777-1111--55555-----3-2-0-|X4
I want to reinvent you now. I want to reinvent you now. I want to reinvent you now. I want to reinvent you now.
|-------------||-------------||-------------||-------------||7-77-7-77-7--||5-55-5-55-5--|
Tap to rate this tab
 
# A B C D E F G H I J K L M N O P Q R S T U V W X Y Z