Godfather Theme tab ver. 3 with lyrics by Guns N Roses - Easy chords and tabs for guitar

Guns N Roses – Godfather Theme tab ver. 3

|----------------------------------------------------||----------------------------------------------------||----------------------------------------------------||-8-10b-10b-10b----10b----10b-10b-10b-10b-10-8-10----||-------------------------------------------------10-||----------------------------------------------------|
|------------------------------------------------------------------------||------------------------------------------------------------------------||------------------------------------------------------------------------||-----------8-10-10b-10b-10b-10b-10b-10b-10b-10b-10b-10b-10b-10b-10-8-10-||------8-10--------------------------------------------------------------||-8-10-------------------------------------------------------------------|
|----------------|-------------------------------------------------||----------------|----------------------------------11-------------||----------------|-------------10-10-10-12p10----------12p10----10-||--10-10-8-10----|-8-8-10-8-12----------------12p10----------12----||-------------10-|-------------------------------------------------||----------------|-------------------------------------------------|
|-------------------------------------------------------------||----------11----------10----------------10-10-10-12p10----10-||-12p10-------12p10-12----12-8-8-10-8-12----------------12----||-------12----------------------------------------------------||-------------------------------------------------------------||-------------------------------------------------------------|
|-------------------------------------------------------------13----||----------11----------10----11----10h11p10----10h11-13p12-13----13-||-12p10-------12p10-12----12----12----------12----------------------||-------12----------------------------------------------------------||-------------------------------------------------------------------||-------------------------------------------------------------------|
|-10h13p10----10-----13-13--------------------------------------------||----------13----13b-------13b-13p11-13-11h13p11-10-11-10h11p10----10-||---------------------------------------------------------------12----||---------------------------------------------------------------------||---------------------------------------------------------------------||---------------------------------------------------------------------|
|-------------------------------------------------------------------------||-------------------------------------------------------------------------||-12p10-12p10----12----10h12----10-------10--------------------------7----||-------------12----12-------12----11-12----11-10-8----10----8-10-11---11-||---------------------------------------------------10----10--------------||-------------------------------------------------------------------------|
|------------------------------------------------------------------||------------------------------------------------------------------||----7-------7-------7-------7-------7-------8----10----8-10-8-7-8-||-10---11p10---11p10---11p10---11p10---11p10---10----10------------||------------------------------------------------------------------||------------------------------------------------------------------|
|---------------------------------------||---------------------------------------||---------------------------------------||-7h8p7----7----------------------------||-------10---10p8-----------------------||-----------------10-8/4-0-8-6-8-6-3-3b-|
|------------------------------------------------------||------------------------------------------------------||-3-----3------------------------------------3-------3-||-3-5-x-3----5p3---3-----3-------------------3-3-3-5-3-||-----x----------5---5-x---5p4-5p4p3-----3---1-3-3-5---||------------------------------------6-3---3---1-------|
|------------------------------------10-||---------------------------------10----||------------------------------12-------||---------------------------10----------||------8---------------8/12-------------||-8-10---10-8-10--8-10------------------|
|-13-12-10h12p10----10----10h13----10h13-----10h13----10h13----10h13----||----------------13----13----------------13b----------------------------||-------------------------------12-----------------12-------12-------12-||-----------------------------------------------------------------------||-----------------------------------------------------------------------||-----------------------------------------------------------------------|
|-10h13-----10h13----10h13-----10h13----10h13-----10----------10h13-----10-||-------13b----------------13b-----------------------13p10----------13b----||-----------------12-----------------12-------13b----------12--------------||--------------------------------------------------------------------------||--------------------------------------------------------------------------||--------------------------------------------------------------------------|
|----------10h13-----10----------10---------10h13----10---------10h13-||-13p10----------13b----13p10-------13p10---------13----13p10---------||-------12--------------------12----------12------------------12------||---------------------------------------------------------------------||---------------------------------------------------------------------||---------------------------------------------------------------------|
|-----10--------------10-----------10----------||-13b----13p10----13b----13p10-13b----13p10----||--------------12---------------------------12-||----------------------------------------------||----------------------------------------------||----------------------------------------------|
|-13b----13----12h13p12p10----12-10h12p10--------10----------------||-----13----13-------------13-------------13-13b----13-11-13p11p10-||------------------------------------------------------------------||------------------------------------------------------------------||------------------------------------------------------------------||------------------------------------------------------------------|
|-------------------------------------------------------------------------||-13p12-13p10----12----10/14-14-15-16-15-15-------15---14-15-16--15-15----||-------------12----12----------------------15-------------------------14-||-------------------------------------------------------------------------||-------------------------------------------------------------------------||-------------------------------------------------------------------------|
|-------------------------------------------------------------||-15---14-15-18--15-14-15----14-------14----------------------||----------------------------------------14---------14--------||-------------------------------------------------------------||-------------------------------------------------------------||-------------------------------------------------------------|
|----10-13-12-10-13-10-12-10----------------------------------||-10-------------------------11-13-10-------------------------||-------------------------------------------------------------||-------------------------------------------------------------||-------------------------------------------------------------||-------------------------------------------------------------|
|----10-13-12-10-13-10-12-10-------------------------------------||-10--------------------------10-9-8-----------------------------||----------------------------------------------------------------||----------------------------------------------------------------||----------------------------------------------------------------||----------------------------------------------------------------|
|------------------6-9-9----------------------------------------||----6-10-10-----8---------------13-11-10-13-11-10-10-----------||-7---------------------------10--------------------------------||--------------------------12---------------------------11-12---||----------------------------------------------------------------||----------------------------------------------------------------|
|-10-10-9-8-10-12-10-----------------------------------------10--||--------------------11-10----10-13-10-8----8-11-9-10-----10-----||----------------------------------------------------------------||----------------------------------------------------------------||----------------------------------------------------------------||----------------------------------------------------------------|
|-13-12-10--13-12-10--13-12-10-------------------------------------||------------------------------12--12--12-12-10-12-10-9-10-12-10-9-||------------------------------------------------------------------||------------------------------------------------------------------||------------------------------------------------------------------||------------------------------------------------------------------|
|-13-12-10-9-10-12-10-9----9-------------------------------------||-----------------------10---10-12-10-9----9----12---------------||---------------------------------------11---11----11-9----9-----||-------------------------------------------------------11---11--||----------------------------------------------------------------||----------------------------------------------------------------|
|----------------------------9-10-------------------------------||-------13-11-10-13-11-10-10------------------------------------||----10---------------------------------------------------------||-12------------------------------------------------------------||---------------------------------------------------------------||---------------------------------------------------------------|
Please rate this tab:
x1.0