Guns N Roses – Patience tab ver. 7

Solo*----8p7--8-8/10--8----------------8p7--8-8/10---7-10/12-|*-------------------10/12-10-8-8-------------------------|*--------------------------------------------------------|*--------------------------------------------------------|*--------------------------------------------------------|*--------------------------------------------------------|
*----8p7--8-8/10--8-----------------------------------------|*--------------------10/12-10-8-8---------------------------|*-----------------------------------------------------------|*-----------------------------------------------------------|*-----------------------------------------------------------|*-----------------------------------------------------------|
*----10/12--10-10-12/14---12-10h12-10---------------------|*--8------------------------------------------------------|*---------------------------------------------------------|*---------------------------------------------------------|*---------------------------------------------------------|*---------------------------------------------------------|
*---------------------------------------------------------|*-------5-8-----------------------------------------------|*---7b9-----7b9r7---5-7------4-7--------------------------|*-----------------------7b9------7b9--5-------------------|*---------------------------------------------------------|*---------------------------------------------------------|
*---------------------------------------------------------|*--------5-8--------------8-10b12r10p8--------------------|*---7b9------7b9r7--5-7/9--------------9------------------|*---------------------------------------------------------|*---------------------------------------------------------|*---------------------------------------------------------|
*---------------------------------------------------------|*-8-10-10b12b10-8-10-8-10b12-8-10-8-10-8-10/12-10-10------|*-------------------9------------9------------------------|*---------------------------------------------------------|*---------------------------------------------------------|*---------------------------------------------------------|
*---------------------------------------------------------|*---3h5-3-------------7b8-7-----------7b8-7---------------|*---------4p2-----2---------4p2---------------------------|*-------------3h4---0-----------3-4-0---------------------|*---------------------------------------------------------|*---------------------------------------------------------|
*--8p7-8-8/10-8--------------8p7-8-8/10-7-10/12-----------|*---------------10/12-10-8-8------------------------------|*---------------------------------------------------------|*---------------------------------------------------------|*---------------------------------------------------------|*---------------------------------------------------------|
*-8p7-8-8/10-8--------------10/12-10-10-12/14-12-10h12-10-|*-------------10/12-10-8-8-8------------------------------|*---------------------------------------------------------|*---------------------------------------------------------|*---------------------------------------------------------|*---------------------------------------------------------|*---------------------------------------------------------|*-----5-8-------------------------------------------------|*-7b9----7b9r7-5---4-7---------5-8-----------8-10b12r10p8-|*---------------7b9---7b9-5-7b9---7b9r7-5-7/9------------9|*---------------------------------------------------------|*---------------------------------------------------------|
*---------------------------------------------------------|*-8-10-10b10-8-10-8-10b12-8-10-8-10-8-10/12-10-10---------|*----------------9------------9---------------------------|*---------------------------------------------------------|*---------------------------------------------------------|*---------------------------------------------------------|
*---------------------------------------------------------|*-3h5-3------------7b8-7-----------7b8-7------------------|*-------4p2----2---------4p2------------------------------|*-----------3h4--0-----------3-4-0------------------------|*---------------------------------------------------------|*---------------------------------------------------------|
Please rate this tab:
x1.0