Gym Class Heroes – Clothes Off tab

Gym Class Heroes
4th Period: Clothes Off!
As Cruel As School Children
Tabbed by: Earwood


Intro  x2

|--6-----7---9-------6-----7---9---||--7-----7---11------7-----7---11--||--6-----8---11------6-----8---11--||--8-----9---11------8-----9---11--||--6-----9---9-------6-----9---9---||--------7-----------------7-------|
Verse x4 End on
|--6-----7---9-------6-----7--9--|-9---9---9--||--7-----7---11------7-----7--11-|-11--11--11-||--6-----8---11------6-----8--11-|-11--11--11-||--8-----9---11------8-----9--11-|-11--11--11-||--6-----9---9-------6-----9--9--|-9---9----9-||--------7-----------------7-----|------------|
Chorus
Gtr 1|--x-7-x-7-x-x-7-----x-6-x-6-x-x-6--||--x-7-x-7-x-x-7-----x-7-x-7-x-x-7--||--x-8-x-8-x-x-8-----x-6-x-6-x-x-6--||--x-9-x-9-x-x-9-----x-8-x-8-x-x-8--||--x-9-x-9-x-x-9-----x-6-x-6-x-x-6--||--x-7-x-7-x-x-7--------------------|
|
|Gtr 2|--6-----7---9-------6-----7---9---||--7-----7---11------7-----7---11--||--6-----8---11------6-----8---11--||--8-----9---11------8-----9---11--||--6-----9---9-------6-----9---9---||--------7-----------------7-------|
|--x-7-x-7-x-x-7-----x-6-x-6--x-x-6-x-x-6-||--x-7-x-7-x-x-7-----x-7-x-7--x-x-7-x-x-7-||--x-8-x-8-x-x-8-----x-6-x-6--x-x-6-x-x-6-||--x-9-x-9-x-x-9-----x-8-x-8--x-x-8-x-x-8-||--x-9-x-9-x-x-9-----x-6-x-6--x-x-6-x-x-6-||--x-7-x-7-x-x-7--------------------------|
|
|--6-----7---9-------6-----7---9---||--7-----7---11------7-----7---11--||--6-----8---11------6-----8---11--||--8-----9---11------8-----9---11--||--6-----9---9-------6-----9---9---||--------7-----------------7-------|
Verse x4 End on
|--6-----7---9-------6-----7--9--|-9---9---9--||--7-----7---11------7-----7--11-|-11--11--11-||--6-----8---11------6-----8--11-|-11--11--11-||--8-----9---11------8-----9--11-|-11--11--11-||--6-----9---9-------6-----9--9--|-9---9----9-||--------7-----------------7-----|------------|
Chorus
Gtr 1|--x-7-x-7-x-x-7-----x-6-x-6-x-x-6--||--x-7-x-7-x-x-7-----x-7-x-7-x-x-7--||--x-8-x-8-x-x-8-----x-6-x-6-x-x-6--||--x-9-x-9-x-x-9-----x-8-x-8-x-x-8--||--x-9-x-9-x-x-9-----x-6-x-6-x-x-6--||--x-7-x-7-x-x-7--------------------|
|
|Gtr 2|--6-----7---9-------6-----7---9---||--7-----7---11------7-----7---11--||--6-----8---11------6-----8---11--||--8-----9---11------8-----9---11--||--6-----9---9-------6-----9---9---||--------7-----------------7-------|
|--x-7-x-7-x-x-7-----x-6-x-6--x-x-6-x-x-6-||--x-7-x-7-x-x-7-----x-7-x-7--x-x-7-x-x-7-||--x-8-x-8-x-x-8-----x-6-x-6--x-x-6-x-x-6-||--x-9-x-9-x-x-9-----x-8-x-8--x-x-8-x-x-8-||--x-9-x-9-x-x-9-----x-6-x-6--x-x-6-x-x-6-||--x-7-x-7-x-x-7--------------------------|
|
|--6-----7---9-------6-----7---9---||--7-----7---11------7-----7---11--||--6-----8---11------6-----8---11--||--8-----9---11------8-----9---11--||--6-----9---9-------6-----9---9---||--------7-----------------7-------|
Solo
*Hold*|-16(b)-(12)/14---------------------------------------------------||---------------16--14----------11\-----------12-11--------/16-14-||---------------------------11--11\--------11-------11------------||-----------------------/13-------------13-------------13---------||-----------------------------------------------------------------||-----------------------------------------------------------------|
*Hold* Let Ring|------------------/16-16-14-14-13-13--------18----16----14----13----------||--14(b)--14(b)-14--------------------14-14--21(b)-19(b)-17(b)-16(b)(r)16--||--------------------------------------------------------------------------||-----------------------------------------------0-----0-----0--------------||--------------------------------------------------------------------------||--------------------------------------------------------------------------|
Chorus
Gtr 1|--x-7-x-7-x-x-7-----x-6-x-6-x-x-6--||--x-7-x-7-x-x-7-----x-7-x-7-x-x-7--||--x-8-x-8-x-x-8-----x-6-x-6-x-x-6--||--x-9-x-9-x-x-9-----x-8-x-8-x-x-8--||--x-9-x-9-x-x-9-----x-6-x-6-x-x-6--||--x-7-x-7-x-x-7--------------------|
|
|Gtr 2|--6-----7---9-------6-----7---9---||--7-----7---11------7-----7---11--||--6-----8---11------6-----8---11--||--8-----9---11------8-----9---11--||--6-----9---9-------6-----9---9---||--------7-----------------7-------|
|--x-7-x-7-x-x-7-----x-6-x-6--x-x-6-x-x-6-||--x-7-x-7-x-x-7-----x-7-x-7--x-x-7-x-x-7-||--x-8-x-8-x-x-8-----x-6-x-6--x-x-6-x-x-6-||--x-9-x-9-x-x-9-----x-8-x-8--x-x-8-x-x-8-||--x-9-x-9-x-x-9-----x-6-x-6--x-x-6-x-x-6-||--x-7-x-7-x-x-7--------------------------|
|
|--6-----7---9-------6-----7---9---||--7-----7---11------7-----7---11--||--6-----8---11------6-----8---11--||--8-----9---11------8-----9---11--||--6-----9---9-------6-----9---9---||--------7-----------------7-------|
Please rate this tab:
x1.0